Log in

One click and you are in

Login with Facebook Login with Google

Why sign up and log in

Guitar Tabs Explorer
Datsuns bass tabs for In love

Bass tabs

This tab isn't complete, the 2nd Chorus is missing, i think that continues for the guitar solo, but if not that bit is missing aswell


Intro/Verse:
G -----------------------------------------
D -----------------------------------------
A ---1-3-----1-3-----1-3---4-3-1-----------
E -3-------3-------3-------------1---------

(you may want to hammer on the 3 on E and maybe bend the 3 on A, but thats up to you, obviously)

1st Chorus:
G ----------------------------------
D ----------------------------------
A -------------------------------1-3
E -3-3-3-3-3-3-3-3-3-3-3-3-3-3-3----

Almost there ...

Sign in to get your own page with links to favourite songs and more. You are just one click away...

Login with Facebook Login with Google