Log in

One click and you are in

Login with Facebook Login with Google

Why sign up and log in

Guitar Tabs Explorer
Datsuns tabs for Harmonic generator

Guitar tabs with lyrics

Title: Harmonic Generator
Band: The Datsuns
Album: The Datsuns (2002)

tabbed by scef (funnell_teen_spirit@yahoo.com)

i saw them live on wednesday in norwich on the nme
awards tour and it kinda made me want to work this
out, so, er, i did...

tune guitars down 1/2 step
intro (and verses)

just play this loadsa times
eb-----------------|-----------------|
Bb-----------------|-----------------|
Gb-----------------|-----------------|
Db-9-------9-------|-9-9---9---9-----|
Ab-9-------9-------|-9-9---9---9-----|
Eb-7-------7-------|-7-7---7---7-----|


chorus - play this twice
eb-----------------|-----------------|
Bb-----------------|-----------------|
Gb-----------------|-----------7-7---|
Db-6-------6-------|-7-7---7---7-7---|
Ab-6-------6-------|-7-7---7---5-5---|
Eb-4-------4-------|-5-5---5---------|

eb-----------------|-----------------|
Bb-----------------|-----------------|
Gb-----------------|-----------------|
Db-9-------9-------|-9-9---9---9-----|
Ab-9-------9-------|-9-9---9---9-----|
Eb-7-------7-------|-7-7---7---7-----|


solo 1 (played over verse riff)
eb-7\------7-7\----|-7-----7\--------|
Bb-7\------7-7\----|-7-----7\--------|
Gb-----------------|---9bu-----------|
Db-----------------|-----------------|
Ab-----------------|-----------------|
Eb-----------------|-----------------|

eb-7---------------|-7---------------|
Bb-7---------------|-7---------------|
Gb---9-7---7-------|---9-7b8b7\------|
Db-------9---------|-----------------|
Ab-----------------|-----------------|
Eb-----------------|-----------------|

eb-------7---------|-----------------|
Bb-----7--10-7-----|-----------------|
Gb--/9---------9-7b|b8---------------|
Db-----------------|-----9-7-9\------|
Ab-----------------|-----------------|
Eb-----------------|-----------------|

eb-----11----------|---9---7---------|
Bb-----------------|-----------------|
Gb/11--------------|/9---------------|
Db-----------------|-----------------|
Ab-----------------|-----------------|
Eb-----------------|-----------------|


bridge bit - play this 4 times
eb-----------------|-----------------|
Bb-----------------|-----------------|
Gb-----------------|-----------------|
Db-4---------------|-----------2-2-2-|
Ab-4---------------|-----------2-2-2-|
Eb-2---------------|-----------0-0-0-|


solo 2 (played over verse riff)
-use as much vibrato as possible, and i think a slide
is used (for the end bit mainly)
eb-----------------|-----------------|
Bb-----------------|-----------------|
Gb-----------------|-----------------|
Db-----------------|-14~~~~~~~~~-----|
Ab-14~~~~~~~-------|-----------------|
Eb-----------------|-----------------|

eb-------------------|------------------|
Bb-------------------|------------------|
Gb-------------------|------------------|
Db-12bbbb13bb12------|---------------12-|
Ab-------------14-12-|-14~~\-----/14----|
Eb-------------------|------------------|

eb-----------------|----------------------|
Bb-----------------|----------------------|
Gb-----------------|----------------------|
Db-14~~~~~~~~~~~~~-|-14~~~~~~~~~~12-14-16~|
Ab-----------------|----------------------|
Eb-----------------|----------------------|

eb-----------------|------------------|
Bb-----------------|------------------|
Gb-----------------|------------------|
Db~~~~~~*//////////|/21~~~~~~~~~**////|
Ab-----------------|------------------|
Eb-----------------|------------------|
        *the //// represents a slow slide
       **keep sliding up higher than the fretboard

then there's a chorus, the solo carries on underneath
with the chorus power chord riff. this is kinda hard
to work out to just kinda improvise around A chord diagramBb majorBb scale,
mainly using the wound strings high up the neck on a
slide (anyway it doesn't have to be perfect, every
time i've seen them perform this song the solo
changes)


outro

rhythm - play 8 times
eb-----------------|--------------------|
Bb-----------------|--------------------|
Gb-----------------|--------------------|
Db-9-------9-------|-9-9---9---12-12-12-|
Ab-9-------9-------|-9-9---9---12-12-12-|
Eb-7-------7-------|-7-7---7---10-10-10-|

lead riff - play 8 times
eb----------------------|------------------|
Bb----------------------|------------------|
Gb-16-14----16---14-----|-16-14------------|
Db-------16-------------|-------16---------|
Ab----------------------|------------------|
Eb----------------------|------------------|


then end on
eb------|
Bb------|
Gb------|
Db-9\---|
Ab-9\---|
Eb-7\---|

and that's it, might try some others on the album but
they sound pretty tricky to work out so may be a while
yet...enjoy
ⓘ Guitar tab for 'Harmonic Generator' by, a female blues artist from Tennessee, United States. was born in 1957.

Almost there ...

Sign in to get your own page with links to favourite songs and more. You are just one click away...

Login with Facebook Login with Google