Log in

One click and you are in

Login with Facebook Login with Google

Why sign up and log in

Guitar Tabs Explorer
Dashboard Confessional tabs for Turpentine chaser

Turpentine Chaser tab - Dashboard Confessional

Dashboard Confessional tabs for Turpentine chaser

Guitar tabs

Turpentine Chaser    by Dashboard Confessional
Tabbed by Monica Kim (moniki@rice.edu)

Tuning:   A chord diagramD MajorD   A chord diagramA augmentedA   A chord diagramD MajorD   A chord diagramG+G   A chord diagramA augmentedA   A chord diagramD MajorD

1. This paint has been tasting of lead...
   1        2          1        2         1        2         1        2
D--0-----0--0-------|--0--------0------|------------------|------------------
A--0-----0--0-------|--0--------0------|------------------|------------------
G--7----11-14-------|--x--------x-(4x's)--7--7--7--7--7--7|--7--7--7--7--7--7
D--0-----0--0-------|--9--------7------|--0--0--0--0--0--0|--0--0--0--0--0--0
A--5-----9-12-------|--9--------7------|--0--0--0--0--0--0|--0--0--0--0--0--0
D--0-----0--0-------|--9--------7------|--0--5--4--0--5--4|--0--5--4--0--5--4

1. Well sooner or later this cold, it's gonna break...
   1        2          1        2         1        2         1        2
D--0--------0-------|--0--------0------|--0--------0------|--0--------0------
A--0--------0-------|--0--------0------|--0--------0------|--0--------0------
G--7--------5-------|--4--------2-(2x's)--7--------4------|--5--------2------
D--7--------5-------|--4--------2------|--7--------4------|--5--------2------
A--5--------3-------|--2--------0------|--5--------2------|--3--------0------
D--0--------0-------|--0--------0------|--0--------0------|--0--------0------

   1        2          1        2
D--0--------0-------|--0--------0------|
A--0--------0-------|--0--------0------|
G--7--------4-------|--5--------2------|
D--7--------4-------|--5--------2------|
A--5--------2-------|--3--------0------|
D--0--------0-------|--0--------0------|


[bridge]

1. and the frightening facts we've been facing our backs to...(4X's)
   1        2          1        2         1        2         1        2
D--0--0--0--0-------|--0---------------|--7------------7h9|--0---------------
A--0--0--0--0-------|--0---------------|--0------------0--|--0---------------
G-14-10-11-11-------|--x---------------|--7------------7--|--0---------------
D--0--0--0--0-------|--9---------------|--7------------7--|--5---------------
A-12-10--9--9-------|--9---------------|--0------------0--|--5---------------
D--0--0--0--0-------|--9---------------|------------------|--5---------------

[last chord]
D---0---
A---0---
G---2---
D---0---
A---0---
D---0---

Almost there ...

Sign in to get your own page with links to favourite songs and more. You are just one click away...

Login with Facebook Login with Google