Log in

One click and you are in

Login with Facebook Login with Google

Why sign up and log in

Guitar Tabs Explorer
Dashboard Confessional tabs for The good fight

Guitar tabs

Tabbed by: Mike Lewek
Tuned Down A chord diagramA augmentedA Half Of Step


Intro
----4p0---2p0--------0-----4p0------2p0------0--
---0-----0----4p0---0-0---0-------0----4p0---0--
--6-----4----------2-----6------4------------2--
---------------------------------------------2--
---------------------------------------------0--
------------------------------------------------
Verse
-0--0--0--0---------------------------------------------
-0--0--0--0---------------------------------------------
-1--2--6--0---------------------------------------------
-2--4--6--7---------------------------------------------
-2--4--4--7--figure out the strum pattern, its easy-----
-0--0--0--5---------------------------------------------


Chorus
---------------------------------------------------
---------------------------------------------------
---------------------------------------------------
-14---9--7-----------------------------------------
-14---9--7---very easy strumming pattern here too--
-12---7--5-----------------------------------------

Other versions of The Good Fight

The good fightChords

Almost there ...

Sign in to get your own page with links to favourite songs and more. You are just one click away...

Login with Facebook Login with Google