GuitarTabsExplorer icon
GuitarTabsExplorer icon

Log in

Songbook

  • Log in to add and see bookmarks

Last visited songs

    No songs visited yet...

Swiss Army Romance by Dashboard Confessional

Chords with lyrics

Swiss Army Romance by Dashboard Confessional
Tabbed by Monica Kim ([email protected])
Tuning:  Chord diagramE MajorE  Chord diagramA augmentedA  Chord diagramD MajorD  Chord diagramG+G  Chord diagramBB  Chord diagramE MajorE


1. sleep with all the lights on...(4X's)
  1  2  3  4   1  2  3  4   1  2  3  4   1  2  3  4
E---0--------------|---0--------------|---0--------------|---0--------------
B---0--------------|---0--------------|---0--------------|---0--------------
G---1--------------|---2--------------|---3--------------|---6--------------
D---2--------------|---2--------------|---4--------------|---7--------------
A---2--------------|---0--------------|---4--------------|---7--------------
E---0--------------|---0--------------|---2--------------|---5--------------

1. college night will draw the crowds...(4X's)
  1  2  3  4   1  2  3  4   1  2  3  4   1  2  3  4
E---0--------------|---0--------------|---0--------------|---0--------------
B---0--------------|---0--------------|---0--------------|---0--------------
G---9--------------|---9--------------|---6--------------|---4--------------
D---9--------------|---9--------------|---6--------------|---4--------------
A---7--------------|---6--------------|---4--------------|---2--------------
E---0--------------|---0--------------|---0--------------|---0--------------
1. we're not 21, but the sooner we are...(3X's)
  1  2  3  4   1  2  3  4   1  2  3  4   1  2  3  4
E---0-------0------|---0-------0------|---0-------0------|---0-------0------
B---0-------0------|---0-------1------|---0-------1------|---0-------0------
G---1-------6------|---3-------2------|---1-------2------|---3-------6------
D---2-------7------|---4-------2------|---2-------2------|---4-------7------
A---2-------7------|---4-------0------|---2-------0------|---4-------7------
E---0-------5------|---2-------0------|---0-------0------|---2-------5------

and grow up fast, and grow up fast...
  1  2  3  4   1  2  3  4   1  2  3  4
E---0-------0------|---0-------0------|---0-------0------|
B---0-------0------|---0-------0------|---0-------0------|
G---1-------6------|---3-------6------|---1-------6------|
D---2-------7------|---4-------7------|---2-------7------|
A---2-------7------|---4-------7------|---2-------7------|
E---0-------5------|---2-------5------|---0-------5------|

...and grow up fast...
  1  2  3  4   1  2  3  4 [last chord]
E---0--------------|---0-------------|---0---
B---0--------------|---0-------------|---0---
G---3--------------|---6-------------|---1---
D---4--------------|---7-------------|---2---
A---4--------------|---7-------------|---2---
E---2--------------|---5-------------|---0---

Other versions of Swiss Army Romance

Alternative guitar chords and tabs for Swiss Army Romance by Dashboard Confessional

VersionType
Swiss army romanceTabs

[ Privacy | About us ]

Welcome to the guitar community

Why join and log in?
- Get songbook with favourite songs
- Get custom made front page
- Submit chords and tabs
- Submit guitar-cover videos
- Get a lot of thumbs up for your work

Songbook

Last visited songs

Site
Home
Search
Community
Submit chords

Video

No video for this page. Check out how you can submit guitar-cover videos here

Search tabs and chords

Browse by artist

A B C D E F G H I J K L M N O P Q R S T U V W X Y Z #


Menu

Search

Video

Bookmark

Login