So Long So Long by Dashboard Confessional

So Long So Long tab by Dashboard Confessional

Guitar tabs

Dashboard Confessional
So Long So Long
Dusk And Summer
Submitted by: paramore_fans@yahoo.com

Piano Tab


Key: F#


Intro and Verses:
  F#  G#m  Ebm  C#
e|-2---|-2----|-2---|-2---|
B|---2-|---2--|---2-|---2-|
G|-----|-1----|-----|-----|
D|-4---|------|-1---|-----|
A|-----|------|-----|-4---|
E|-----|------|-----|-----|
  x2  x2   x2  x2


Refrain: As I Try

  B
e|-2----|
B|---2--|
G|------|
D|------|
A|-2----|
E|------|
  x8


Chorus: How the girls turned into ghosts before your eyes...
  F#  G#m  F#/Bb    B     Ebm  F#/Bb  C#  A   B
e|-6--4-|-2---|-4-----|-6--4-----4-|-6--4--|-2-----|-4---|-5-4-|-5-2-|
B|------|-----|-------|-------7----|-------|-------|-----|-----|-----|
G|------|-1---|-3-----|-4--4--4--4-|-------|-------|-----|-----|-----|
D|-4--4-|-----|-------|------------|-------|-------|-----|-----|-----| (x2)
A|------|-----|-------|------------|-6--6--|-1-----|-4---|-0---|-2---|
E|------|-----|-------|------------|-------|-------|-----|-----|-----|
                              x2  x2

Post Chorus 1: So Long, So Long...
  A   B   F#  G#m  Ebm  C#
e|-5-4-|-5-2-|-2---|-2---|-2---|-2---|
B|-----|-----|---2-|---2-|---2-|---2-|
G|-----|-----|-----|-1---|-----|-----|
D|-----|-----|-4---|-----|-1---|-----|
A|-0---|-2---|-----|-----|-----|-4---|
E|-----|-----|-----|-----|-----|-----|
  x2  x2  x2  x2  x2  x2

then
  F#  G#m  Ebm  C#
e|-2---|-2----|-2---|-2---|
B|---2-|---2--|---2-|---2-|
G|-----|-1----|-----|-----|
D|-4---|------|-1---|-----|
A|-----|------|-----|-4---|
E|-----|------|-----|-----|
  x2  x2   x2  x2


Post Chorus 2: So Long, So Long, So Long, So Long, So Long
  A   B
e|-5-4-|-5-2-|
B|-----|-----|
G|-----|-----|
D|-----|-----| (x3)
A|-0---|-2---|
E|-----|-----|
  x2  x2
then
So Long, So Long
  F#  G#m  Ebm  C#
e|-2---|-2----|-2---|-2---|
B|---2-|---2--|---2-|---2-|
G|-----|-1----|-----|-----|
D|-4---|------|-1---|-----| (x4)
A|-----|------|-----|-4---|
E|-----|------|-----|-----|
  x2  x2   x2  x2


Bridge: I will leave under the cover...
  B
e|-2---
B|---2-
D|-----
G|----- (x2)
A|-2---
E|-----


Now I'm Gone
  F#  G#m  Ebm  C#
e|-2---|-2----|-2---|-2---|
B|---2-|---2--|---2-|---2-|
G|-----|-1----|-----|-----|
D|-4---|------|-1---|-----| (x4)
A|-----|------|-----|-4---|
E|-----|------|-----|-----|
  x2  x2   x2  x2

Da Da Da...
  F#  G#m  Ebm  C#
e|-2---|-2----|-2---|-2---|
B|---2-|---2--|---2-|---2-|
G|-----|-1----|-----|-----|
D|-4---|------|-1---|-----| (x4)
A|-----|------|-----|-4---|
E|-----|------|-----|-----|
  x2  x2   x2  x2


End on F#
e|-2-
B|-2-
G|-3-
D|-4-
A|-4-
E|-2-

Find guitar tabs and chords

A B C D E F G H I J K L M N O P Q R S T U V W X Y Z #