Log in

One click and you are in

Login with Facebook Login with Google

Why sign up and log in

Guitar Tabs Explorer
Dashboard Confessional chords for Living in your letters

Living In Your Letters chords - Dashboard Confessional

Dashboard Confessional chords for Living in your letters

Guitar chords

Living in your letters    by Dashboard Confessional
Tabbed by Monica Kim (moniki@rice.edu)

Tuning:   A chord diagramD MajorD   A chord diagramA augmentedA   A chord diagramD MajorD   A chord diagramG+G   A chord diagramA augmentedA   A chord diagramD MajorD

I'm always assuming the worst, but you're going on nonetheless...(4x's)
   1   2   3   4      1   2   3   4      1   2   3   4      1   2   3   4
D--0---------------|--0---------------|--0---------------|--0-------0---0---
A--0---------------|--0---------------|--0---------------|--0-------0---0---
G--7---------------|--x---------------|--x---------------|--x-------x---x---
D--0---------------|-12---------------|-10---------------|--5-------7--12---
A--0---------------|--x---------------|--9---------------|--7-------9---x---
D------------------|-11---------------|------------------|-------------11---

pouring over photographs, I'm living in your letters...(4x's)
   1   2   3   4      1   2   3   4      1   2   3   4      1   2   3   4
D--0---------------|--4---------------|--5---------------|--0-------0-------
A--0---------------|--0---------------|--0---------------|--0-------0-------
G--2---------------|--0---------------|--0---------------|--2-------0-------
D--0---------------|--4---------------|--5---------------|--0-------2-------
A--0---------------|--4---------------|--5---------------|--0-------0-------
D------------------|------------------|------------------|------------------


[bridge]
So I'll hit the pavement, it's gotta be better than waiting...(4x's)

   1   2     3   4       1   2   3   4 		 [last measure]
D--0------0--0------0-|--0-------0---0---|		|--0-[12]---0-------|
A--0------0-14------0-|--0-------0---0---|		|--0-[12]---0-------|
G-14-----11--0-----11-|--0------12--11---|		|-14-[12]---7-------|
D--0------0--0------0-|-14-------0---0---|		|--0-[12]-0-0-------|
A-12-----12-12-----12-|-12------12--12---|		|-12-[12]-0---------|
D--0------0--0------0-|--0-------0---0---|		|--0-[12]-0---------|

Almost there ...

Sign in to get your own page with links to favourite songs and more. You are just one click away...

Login with Facebook Login with Google