Hope You're Happy by Dashboard Confessional

Hope You're Happy tab by Dashboard Confessional

Guitar tabs

Tuning: Standard

Difficulty: Intermediate


INTRO {x1}

E----------------------------------|--------------------------0-------|
B------0---------------------------|--------------------------------0-|
G----------1/2/1-------2-----2/1---|--------1/2/1---------1/2---1/2---|
D----2-----------2---------0-----2-|------2-------2-----2-------------|
A--------0-----------4---0---------|----0-------------0---------------|
E--0---------------0---------------|--2-------------2-----------------|

E----------------------------------|--------0---------------0---------|
B------0---------------0-----------|----------------------0---0-------|
G----------------------------------|------2-------------5-------5-----|
D----2-----6/4/6/4-4/2---2-4/6/4-2-|----4-------------7-----------7---|
A--------0-------------------------|--4-------------7-----------------|
E--0-------------------------------|----------------------------------|

VERSE

E 0 0 0 0 0 0
B 9 9 9 10 9 0
G x x x x x 6
D 6 6 6 7 7 6
A x x x x x 0
E 0 0 0 0 0 0

E 0 0 0 0 0 0 0 0
B 9 9 9 10 9 0 0 0
G x x x x x 4 6 2
D 6 6 6 7 6 4 6 2
A x x x x x 0 0 0
E 0 0 0 0 0 0 0 0

E 0 0 0 0 0 0
B 9 9 9 10 9 0
G x x x x x 6
D 6 6 6 7 7 6
A x x x x x 0
E 0 0 0 0 0 0

E 0 0 0 0 0 0 0 0
B 9 9 9 10 9 0 0 0
G x x x x x 4 6 2
D 6 6 6 7 6 4 6 2
A x x x x x 0 0 0
E 0 0 0 0 0 0 0 0

CHORUS {x2}

E 0 2 0 0 0 0 0 0 0
B 0 2 0 10 9 7 5 7 4
G 1 2 6 x x x x x x
D 2 4 6 7 6 4 2 4 1
A 2 4 0 x x x x x x
E 0 2 0 0 0 0 0 0 0

BRIDGE

E----------------------------------|--------------------------0-------|
B------0---------------------------|--------------------------------0-|
G----------1/2/1-------2-----2/1---|--------1/2/1---------1/2---1/2---|
D----2-----------2---------0-----2-|------2-------2-----2-------------|
A--------0-----------4---0---------|----0-------------0---------------|
E--0---------------0---------------|--2-------------2-----------------|
(same thing as intro)
E----------------------------------|--------0---------------0---------|
B------0---------------0-----------|----------------------0---0-------|
G----------------------------------|------2-------------5-------5-----|
D----2-----6/4/6/4-4/2---2-4/6/4-2-|----4-------------7-----------7---|
A--------0-------------------------|--4-------------7-----------------|
E--0-------------------------------|----------------------------------|

VERSE

E 0 0 0 0 0 0
B 9 9 9 10 9 0
G x x x x x 6
D 6 6 6 7 7 6
A x x x x x 0
E 0 0 0 0 0 0

E 0 0 0 0 0 0 0 0
B 9 9 9 10 9 0 0 0
G x x x x x 4 6 2
D 6 6 6 7 6 4 6 2
A x x x x x 0 0 0
E 0 0 0 0 0 0 0 0

E 0 0 0 0 0 0 0    0
B 9 9 9 10 9 0  0 2 2 0
G x x x x x 6   1
D 6 6 6 7 7 6
A x x x x x 0
E 0 0 0 0 0 0

E 0 0 0 0 0 0 0 0
B 9 9 9 10 9 0 0 0
G x x x x x 4 6 2
D 6 6 6 7 6 4 6 2
A x x x x x 0 0 0
E 0 0 0 0 0 0 0 0

CHORUS {x2)

E 0 2 0 0 0 0 0 0 0
B 0 2 0 10 9 7 5 7 4
G 1 2 6 x x x x x x
D 2 4 6 7 6 4 2 4 1
A 2 4 0 x x x x x x
E 0 2 0 0 0 0 0 0 0

OUTRO
E----------------------------------|--------------------------0-------|
B------0---------------------------|--------------------------------0-|
G----------1/2/1-------2-----2/1---|--------1/2/1---------1/2---1/2---|
D----2-----------2---------0-----2-|------2-------2-----2-------------|
A--------0-----------4---0---------|----0-------------0---------------|
E--0---------------0---------------|--2-------------2-----------------|
(once again, same thing as intro!:D)
E----------------------------------|--------0---------------0---------|
B------0---------------0-----------|----------------------0---0-------|
G----------------------------------|------2-------------5-------5-----|
D----2-----6/4/6/4-4/2---2-4/6/4-2-|----4-------------7-----------7---|
A--------0-------------------------|--4-------------7-----------------|
E--0-------------------------------|----------------------------------|

END ON

E 0
B 0
G 1
D 2
A 2
E 0

THE END

Find guitar tabs and chords

A B C D E F G H I J K L M N O P Q R S T U V W X Y Z #