Log in

One click and you are in

Login with Facebook Login with Google

Why sign up and log in

Guitar Tabs Explorer
Dashboard Confessional tabs for Hands down

Guitar tabs

Title: "Hands Down"


Tuning is 1/2 Step Down - A chord diagramEb MajorEb A chord diagramAbAb A chord diagramDbDb A chord diagramGbGb A chord diagramBb majorBb A chord diagramEb MajorEb
Intro:
E---------------------------------
B---------------------------------
G---------------------------------
D--------6----------6-9-------6---
A----7-9---7----7-9-------7-9-----
E--0----------0---------0---------


Riff ends with:
E-------------
B-------------
G---9-----4---
D---9-----4---
A---7-----2---
E-------------


Verse: "Breathe in for luck..."
E-------------------------------------------------
B-------------------------------------------------
G---1--------6---------------4--------7-\-6-------
D---2--------6(PM)---7-------4(PM)----7-\-6-------
A---2(PM)----4-------7(PM)---2--------5-\-4-------
E---0----------------5----------------------------


Chorus:
E-----0-------4------5-------4-----5----4---
B-----0-------4------5-------4-----5----4---
G-----1-------4------6-------4-----6----4---
D-----2-------6------7-------6-----7----6---
A-----2-------6------7-------6-----7----6---
E-----0-------4------5-------4-----5----4---


Bridge/outro:

   "Hands down this is the..."            End On:
E---0----------0-----------------------   E--0---
B---0----------0--------9--------7-----   B--0---
G---9---------14--------9--------8-----   G--9---
D---9---------14--------9--------9-----   D--9---
A---7---------12--------7--------9-----   A--7---
E--------------------------------7-----   E------



Verse 1:

Chorus:

Verse 2:

Chorus:

Bridge/Outro:

ⓘ Guitar tab for 'Hands Down' by Dashboard Confessional, an emo band formed in 1999 from Florida, USA

Almost there ...

Sign in to get your own page with links to favourite songs and more. You are just one click away...

Login with Facebook Login with Google