GuitarTabsExplorer icon
GuitarTabsExplorer icon

Log in

Songbook

  • Log in to add and see bookmarks

Last visited songs

    No songs visited yet...

Ender Will Save Us All by Dashboard Confessional

Bass tabs

Ender Will Save us all by Dashboard Confessional.
tabbed by andy, [email protected]

I beleive I have to state that this is all my own work. This is the bassline of the
Summer's Kiss version of Ender Will Save us all. I learned this song so I could play
it with my friend so I doubt it completely correct, but its close. If you want to e-mail
me and complainabout it, fire away. E-mail me at [email protected] or IM me at
Fantastic Andy 10.


intro
G-----------------------------------------------------------------------
B-----------------------------------------------------------------------
A--5-5-5-5-5-5-5-5-3-3-3-3-3-3-3-3----------------------5(let it ring)--
E----------------------------------3-3-3-3-3-3-3------------------------
              do this 3x
        It's just like you to contest . . .
G-----------------------------------------------------------------------
B-----------------------------------------------------------------------
A--5-5-5-5-5-5-5-5-3-3-3-3-3-3-3-3----------------------5(let it ring)--
E----------------------------------3-3-3-3-3-3-3------------------------
                             another 3x


    A certain calousness complies . . .
G-----------------------------------------------------------------------
B-----------------------------------------------------------------------
A--5-5-5-5-5-5-5-5-3-3-3-3-3-3-3-3----------------------5(let it ring)--
E----------------------------------3-3-3-3-3-3-3------------------------
                            one more 3x

     I want to give you . .
G-----------------------------------------------------------------------
B-----------------------------------------------------------------------
A--5-5---------0-0--------0/2-3-3------------------2-0-2-0-2-4---5-5----
E-----------------------------------------3-3---------------------------


    is it what I need?
G--------------------------------------------
B--------------------------------------------
A-----0-0-------0/2-3-3----------2-0-2-0-2-4-
E----------------------------3-3-------------


    It's hard to explain . . .     hard to beleive . .
G-------------------------------------------------------------------
B-------------------------------------------------------------------
A----5-5----0-----3-3-------------------5-5----0----3-3-------------
E------------------------3-3------------------------------3-3-------
                  {----------2x--------------------

 there's got to be something . .
G-------------------------------------------------------------------
B-------------------------------------------------------------------
A--5-5-5-5-5p-0-0-0-0-2/3-3-3-3-3-----------------------------------
E----------------------------------3-3-3-3-3------------------------
  ---------------------2x-------------------}


       so far away from you . . . . .
G-----------------------------------------------------------------------
B-----------------------------------------------------------------------
A-----------------5-5-5----5-3-3-3----3----------5-5-5-3-3-3-5-5-5------
E-----------------------------------------3-3-3-------------------------
         {--------repeat this a while---------------------}


repeat if necessary.

[ Privacy | About us ]

Welcome to the guitar community

Why join and log in?
- Get songbook with favourite songs
- Get custom made front page
- Submit chords and tabs
- Submit guitar-cover videos
- Get a lot of thumbs up for your work

Songbook

Last visited songs

Site
Home
Search
Community
Submit chords

Video

No video for this page. Check out how you can submit guitar-cover videos here

Search tabs and chords

Browse by artist

A B C D E F G H I J K L M N O P Q R S T U V W X Y Z #


Menu

Search

Video

Bookmark

Login