El Scorcho by Dashboard Confessional

El Scorcho tab by Dashboard Confessional

Intro

Standard Tuning
Capo on 1st Fret

Intro / Verses

|--------------------|--------------------|
|--------------------|--------------------|
|--------5-----------|--------10----------|
|--------------------|--------------------|
|-----6-----6/11-----|-----11-----11\6----|
|--4-----------------|--9-----------------| 3x

then

|--------------------|--------------------|
|--------------------|--------------------|
|--------5-----------|--------0---------0-|
|--------------------|-----6---------5----|
|-----6-----6--------|--7---------6-------|
|--4-----------------|--------------------|


Listen to the song for the timing, cause lord knows tabs suck for writing the timing.


Chorus Chords:

Open G C D formations

Bridge Chords:
 Capo 1st Fret
  G# C#  a# d#
|--3---3----0----2---|
|--3---3----1----3---|
|--0---0----2----2---|
|--0---2----2----0---|
|--2---3----0----0---|
|--3---x----x----x---|


G#->C#->a#->D# repeat

Strum Pattern:

DUxUxUxU (don't mute the open strings)


Bells solo:

Bar chords
G#maj c#min

If you don't want to use a Capo simply play this a half step down, though using a capo
let you play it exactly like Dashboard plays the song.

Find guitar tabs and chords

A B C D E F G H I J K L M N O P Q R S T U V W X Y Z #