Age Six Racer by Dashboard Confessional

Age Six Racer tab by Dashboard Confessional

Guitar tabs

Tuning: eb Bb Gb Db Ab Eb

Difficulty: Novice

Dashboard Confessional - Age Six Racer

Submitted by Skylar

Intro:
eb|-5-----------------------------------|
Bb|---0---------------------------------|
Gb|-----6-7-62-----2-------------------|
Db|-------------0-----0-------0---------|
Ab|---------------2-----2---0-----0-----|
Eb|-----------------------2-----2--/73-|

Chorus:
eb|-2-0-2-3-|
Bb|-3-2-3-3-|
Gb|-2-2-4-0-|
Db|-0-2-4-0-|
Ab|-x-0-2-2-|
Eb|-x-x-x-3-|

Bridge:
eb|-2-----2-----------0------------2-----5-----3-----|
Bb|---3-----3-----------2------------3-----3-----3---|
Gb|-----2-----2-----2-----2------4-----4-----4-----4-|
Db|---------------2------------4---------------------|
Ab|-------------0------------2-----------------------|
Eb|--------------------------------------------------|

Pre-Outro:
eb|---------|
Bb|---------|
Gb|-6-3-8-4-|
Db|-7-4-9-5-|
Ab|-7-4-9-5-|
Eb|-5-2-7-3-|

Song Order:

Intro X2

Chorus:
So long sweet summer,
I stumbled upon you and gratefully basked in your rays.
So long sweet slumber,
I fell into you now you're gracefully falling away.

Bridge:
Hey thanks, thanks for that summer.
It is cold where your going I hope that your heart's always warm.
I gave you the best, I gave you the best that I had.
You pased on my letters and passed on the best that I had.

Chorus:
So long sweet summer,
I stumbled upon you and gratefully basked in your rays.
So long sweet slumber,
I fell into you now you're gracefully falling away.

Intro X2

Pre-Outro:
I hate the winter in Lexington.
I hate the winter in Lexington.
Lexington.
Lexington.
Lexington.

Intro X1

Find guitar tabs and chords

A B C D E F G H I J K L M N O P Q R S T U V W X Y Z #