Again I Go Unnoticed by Dashboard Confessional

Again I Go Unnoticed chords by Dashboard Confessional

Guitar chords with lyrics

Again I go Unnoticed by Dashboard Confessional
Tabbed by Monica Kim (moniki@rice.edu)
Tuning:  E A D G B E

This is all my own work. The strumming pattern is the same throughout,
except for where indicated at the end.

A. "So quiet..."
  1  2  3  4   1  2  3  4   1  2  3  4   1  2  3  4
E--0-000-000-000-00|--0-------------|---0-------------|----0---------------
B--0-000-000-000-00|--0-------------|---0-------------|----0---------------
G--9-999-999-999-99|--9-------------|---6-------------|----4---------------
D--9-999-999-999-99|--9-------------|---6-------------|----4---------------
A--7-777-777-777-77|--7-------------|---4-------------|----2---------------
E--0-000-000-000-00|--0-------------|---0-------------|----0---------------

B. "Please tell me..."
  1  2  3  4   1  2  3  4   1  2  3  4   1  2  3  4
E--0-000-000-000-00|--0-------------|---0-------------|----0---------------
B--0-000-000-000-00|--0-------------|---0-------------|----0---------------
G--9-999-999-999-99|--4-------------|---6-------------|----2---------------
D--9-999-999-999-99|--4-------------|---6-------------|----2---------------
A--7-777-777-777-77|--2-------------|---4-------------|----0---------------
E--0-000-000-000-00|--0-------------|---0-------------|----0---------------

C. "I'll wait until tomorrow..."
  1  2  3  4   1  2  3  4   1  2  3  4   1  2  3  4
E--2--------------|---0-------------|---0-------------|----4---------------
B--2--------------|---0-------------|---0-------------|----4---------------
G--2--------------|---2-------------|---9-------------|----4---------------
D--4--------------|---2-------------|---9-------------|----6---------------
A--4--------------|---0-------------|---7-------------|----6---------------
E--2--------------|---0-------------|---0-------------|----4---------------

D. "Out of the corner of my eye..."
  1  2  3  4   1  2  3  4   1  2  3  4   1  2  3  4
E--2--------------|---0-------------|---0-------------|----0---------------
B--2--------------|---0-------------|---0-------------|----0---------------
G--2--------------|---2-------------|---9-------------|----4---------------
D--4--------------|---2-------------|---9-------------|----4---------------
A--4--------------|---0-------------|---7-------------|----2---------------
E--2--------------|---0-------------|---0-------------|----0---------------

E. "Exhale, another wasted night..."
  1  2  3  4  1  2  3  4    1  2  3  4   1  2  3  4
E--0-------0-----|--0-------0---0-00|---0-------0---0-00|--0-----0-0---0-00
B--0-------0-----|--0-------0---0-00|---0-------0---0-00|--0-----0-0---0-00
G--9-------9-----|--9-------9---9-99|---6-------6---6-66|--4-----4-4---4-44
D--9-------9-----|--9-------9---9-99|---6-------6---6-66|--4-----4-4---4-44
A--7-------7-----|--7-------7---7-77|---4-------4---4-44|--2-----2-2---2-22
E--0-------0-----|--0-------0---0-00|---0-------0---0-00|--0-----0-0---0-00

  1  2  3  4      Sequence:  A.(2 X's)
E--0--------------|           B.(4 X's)
B--0--------------|           A.(2 X's)
G--9--------------|           C.(4 X's}
D--9--------------|           D.(1 X)
A--7--------------|           A.(1 X}
E--0--------------|           E.(1 X)

Other versions of Again I Go Unnoticed

Alternative guitar chords and tabs for Again I Go Unnoticed by Dashboard Confessional

Find guitar tabs and chords

A B C D E F G H I J K L M N O P Q R S T U V W X Y Z #