Log in

One click and you are in

Login with Facebook Login with Google

Why sign up and log in

Guitar Tabs Explorer
Daron Malakian And Scars On Broadway bass tabs for They say

They Say bass tab by Daron Malakian And Scars On Broadway

Daron Malakian And Scars On Broadway bass tabs for They say

Bass tabs

Tuning: Drop Db (Db Ab Db Gb)

Title: They Say
Album: Scars on Broadway

Tuning: Drop C# (C# G# C# F#)

Intro:

No bass parts for the first 8 bars, followed by:

   1  +  2  +  3  +  4  +   1  +  2  +  3  +  4  +
F#|-----------------------------------------|-----------------------------------------|
C#|-----------------------------------------|-----------------------------------------|
G#|-----------------------------------------|-----------------------------------------|
C#|--0---------0---------0----0----0----0---|--5---------5---------5----5----5----5---|


   1  +  2  +  3  +  4  +   1  +  2  +  3  +  4  +
F#|-----------------------------------------|-----------------------------------------|
C#|-----------------------------------------|-----------------------------------------|
G#|-----------------------------------------|-----------------------------------------|
C#|--3---------3---------3----3----3----3---|--2---------2---------2----2----2----2---|


   1  +  2  +  3  +  4  +   1  +  2  +  3  +  4  +
F#|-----------------------------------------|-----------------------------------------|
C#|-----------------------------------------|-----------------------------------------|
G#|-----------------------------------------|-----------------------------------------|
C#|--0---------0---------0----0----0----0---|--5---------5---------5----5----5----5---|


   1  +  2  +  3  +  4  +   1  +  2  +  3  +  4  +
F#|-----------------------------------------|-----------------------------------------|
C#|-----------------------------------------|-----------------------------------------|
G#|-----------------------------------------|-----------------------------------------|
C#|--3---------3---------3----3----3----3---|--2---------2---------2----2----2----2---|


Verse 1:

   1  +  2  +  3  +  4  +   1  +  2  +  3  +  4  +
F#|-----------------------------------------|-----------------------------------------|
C#|-----------------------------------------|-----------------------------------------|
G#|-----------------------------------------|-----------------------------------------|
C#|--0---------0---------0----0----0----0---|--5---------5---------5----5----5----5---|


   1  +  2  +  3  +  4  +   1  +  2  +  3  +  4  +
F#|-----------------------------------------|-----------------------------------------|
C#|-----------------------------------------|-----------------------------------------|
G#|-----------------------------------------|-----------------------------------------|
C#|--3---------3---------3----3----3----3---|--2---------2---------2----2----2----2---|


   1  +  2  +  3  +  4  +   1  +  2  +  3  +  4  +
F#|-----------------------------------------|-----------------------------------------|
C#|-----------------------------------------|-----------------------------------------|
G#|-----------------------------------------|-----------------------------------------|
C#|--0---------0---------0----0----0----0---|--5---------5---------5----5----5----0---|


   1  +  2  +  3  +  4  +   1  +  2  +  3  +  4  +
F#|-----------------------------------------|-----------------------------------------|
C#|-----------------------------------------|-----------------------------------------|
G#|-----------------------------------------|-----------------------------------------|
C#|--3---------3---------3----3----3----0---|--2---------2---------2----2----2----2---|


Pre-Chorus 1:

   1  +  2  +  3  +  4  +   1  +  2  +  3  +  4  +
F#|-----------------------------------------|-----------------------------------------|
C#|-----------------------------------------|-----------------------------------------|
G#|-----------------------------------------|-----------------------------------------|
C#|--3---------3---------3----3----3----3---|--3---------3---------3----3----3----3---|


   1  +  2  +  3  +  4  +   1  +  2  +  3  +  4  +
F#|-----------------------------------------|-----------------------------------------|
C#|-----------------------------------------|-----------------------------------------|
G#|-----------------------------------------|-----------------------------------------|
C#|-/7---------7---------7----7----7----7---|--7---------7---------7----7----7----0---|


   1  +  2  +  3  +  4  +   1  +  2  +  3  +  4  +
F#|-----------------------------------------|-----------------------------------------|
C#|-----------------------------------------|-----------------------------------------|
G#|-----------------------------------------|-----------------------------------------|
C#|--3---------3---------3----3----3----3---|--3---------3---------3----3----3----3---|


   1  +  2  +  3  +  4  +   1  +  2  +  3  +  4  +
F#|-----------------------------------------|-----------------------------------------|
C#|-----------------------------------------|-----------------------------------------|
G#|-----------------------------------------|-----------------------------------------|
C#|-/7---------7---------7----7----7----7---|--7---------7---------7----7----7----7---|


Chorus 1:

   1  +  2  +  3  +  4  +   1  +  2  +  3  +  4  +
F#|-----------------------------------------|-----------------------------------------|
C#|-----------------------------------------|-----------------------------------------|
G#|-----------------------------------------|-----------------------------------------|
C#|--0---------0---------0----0----0----0---|--5---------5---------5----5----5----5---|


   1  +  2  +  3  +  4  +   1  +  2  +  3  +  4  +
F#|-----------------------------------------|-----------------------------------------|
C#|-----------------------------------------|-----------------------------------------|
G#|-----------------------------------------|-----------------------------------------|
C#|--3---------3---------3----3----3----3---|--2---------2---------2----2----2----2---|


   1  +  2  +  3  +  4  +   1  +  2  +  3  +  4  +
F#|-----------------------------------------|-----------------------------------------|
C#|-----------------------------------------|-----------------------------------------|
G#|-----------------------------------------|-----------------------------------------|
C#|--0---------0---------0----0----0----0---|--5---------5---------5----5----5----5---|


   1  +  2  +  3  +  4  +   1  +  2  +  3  +  4  +
F#|-----------------------------------------|-----------------------------------------|
C#|-----------------------------------------|-----------------------------------------|
G#|-----------------------------------------|-----------------------------------------|
C#|--3---------3---------3----3----3----3---|--2---------2---------2----2----2----2---|


Verse 2:

   1  +  2  +  3  +  4  +   1  +  2  +  3  +  4  +
F#|-----------------------------------------|-----------------------------------------|
C#|-----------------------------------------|-----------------------------------------|
G#|-----------------------------------------|-----------------------------------------|
C#|--0---------0---------0----0----0----0---|--5---------5---------5----5----5----5---|


   1  +  2  +  3  +  4  +   1  +  2  +  3  +  4  +
F#|-----------------------------------------|-----------------------------------------|
C#|-----------------------------------------|-----------------------------------------|
G#|-----------------------------------------|-----------------------------------------|
C#|--3---------3---------3----3----3----3---|--2---------2---------2----2----2----2---|


   1  +  2  +  3  +  4  +   1  +  2  +  3  +  4  +
F#|-----------------------------------------|-----------------------------------------|
C#|-----------------------------------------|-----------------------------------------|
G#|-----------------------------------------|-----------------------------------------|
C#|--0---------0---------0----0----0----0---|--5---------5---------5----5----5----5---|


   1  +  2  +  3  +  4  +   1  +  2  +  3  +  4  +
F#|-----------------------------------------|-----------------------------------------|
C#|-----------------------------------------|-----------------------------------------|
G#|-----------------------------------------|-----------------------------------------|
C#|--3---------3---------3----3----3----3---|--2---------2---------2----2----2----2---|


   1  +  2  +  3  +  4  +   1  +  2  +  3  +  4  +
F#|-----------------------------------------|-----------------------------------------|
C#|-----------------------------------------|-----------------------------------------|
G#|-----------------------------------------|-----------------------------------------|
C#|--0---------0---------0----0----0----0---|--5---------5---------5----5----5----5---|


   1  +  2  +  3  +  4  +   1  +  2  +  3  +  4  +
F#|-----------------------------------------|-----------------------------------------|
C#|-----------------------------------------|-----------------------------------------|
G#|-----------------------------------------|-----------------------------------------|
C#|--3---------3---------3----3----3----3---|--2---------2---------2----2----2----2---|


   1  +  2  +  3  +  4  +   1  +  2  +  3  +  4  +
F#|-----------------------------------------|-----------------------------------------|
C#|-----------------------------------------|-----------------------------------------|
G#|-----------------------------------------|-----------------------------------------|
C#|--0---------0---------0----0----0----0---|--5---------5---------5----5----5----5---|


   1  +  2  +  3  +  4  +   1  +  2  +  3  +  4  +
F#|-----------------------------------------|-----------------------------------------|
C#|-----------------------------------------|-----------------------------------------|
G#|-----------------------------------------|-----------------------------------------|
C#|--3---------3---------3----3----3----3---|--2---------2---------2----2----2----2---|


Pre-Chorus 2:

   1  +  2  +  3  +  4  +   1  +  2  +  3  +  4  +
F#|-----------------------------------------|-----------------------------------------|
C#|-----------------------------------------|-----------------------------------------|
G#|-----------------------------------------|-----------------------------------------|
C#|--3---------3---------3----3----3----3---|--3---------3---------3----3----3----3---|


   1  +  2  +  3  +  4  +   1  +  2  +  3  +  4  +
F#|-----------------------------------------|-----------------------------------------|
C#|-----------------------------------------|-----------------------------------------|
G#|-----------------------------------------|-----------------------------------------|
C#|-/7---------7---------7----7----7----7---|--7---------7---------7----7----7----0---|


   1  +  2  +  3  +  4  +   1  +  2  +  3  +  4  +
F#|-----------------------------------------|-----------------------------------------|
C#|-----------------------------------------|-----------------------------------------|
G#|-----------------------------------------|-----------------------------------------|
C#|--3---------3---------3----3----3----3---|--3---------3---------3----3----3----3---|


   1  +  2  +  3  +  4  +   1  +  2  +  3  +  4  +
F#|-----------------------------------------|-----------------------------------------|
C#|-----------------------------------------|-----------------------------------------|
G#|-----------------------------------------|-----------------------------------------|
C#|-/7---------7---------7----7----7----7---|--7---------7---------7----7----7----7---|


Chorus 2:

   1  +  2  +  3  +  4  +   1  +  2  +  3  +  4  +
F#|-----------------------------------------|-----------------------------------------|
C#|-----------------------------------------|-----------------------------------------|
G#|-----------------------------------------|-----------------------------------------|
C#|--0---------0---------0----0----0----0---|--5---------5---------5----5----5----5---|


   1  +  2  +  3  +  4  +   1  +  2  +  3  +  4  +
F#|-----------------------------------------|-----------------------------------------|
C#|-----------------------------------------|-----------------------------------------|
G#|-----------------------------------------|-----------------------------------------|
C#|--3---------3---------3----3----3----3---|--2---------2---------2----2----2----2---|


   1  +  2  +  3  +  4  +   1  +  2  +  3  +  4  +
F#|-----------------------------------------|-----------------------------------------|
C#|-----------------------------------------|-----------------------------------------|
G#|-----------------------------------------|-----------------------------------------|
C#|--0---------0---------0----0----0----0---|--5---------5---------5----5----5----5---|


   1  +  2  +  3  +  4  +   1  +  2  +  3  +  4  +
F#|-----------------------------------------|-----------------------------------------|
C#|-----------------------------------------|-----------------------------------------|
G#|-----------------------------------------|-----------------------------------------|
C#|--3---------3---------3----3----3----3---|--2---------2---------2----2----2----2---|


Pre-Chorus 3:

   1  +  2  +  3  +  4  +   1  +  2  +  3  +  4  +
F#|-----------------------------------------|-----------------------------------------|
C#|-----------------------------------------|-----------------------------------------|
G#|-----------------------------------------|-----------------------------------------|
C#|--3---------3---------3----3----3----3---|--3---------3---------3----3----3----3---|


   1  +  2  +  3  +  4  +   1  +  2  +  3  +  4  +
F#|-----------------------------------------|-----------------------------------------|
C#|-----------------------------------------|-----------------------------------------|
G#|-----------------------------------------|-----------------------------------------|
C#|-/7---------7---------7----7----7----7---|--7---------7---------7----7----7----0---|


   1  +  2  +  3  +  4  +   1  +  2  +  3  +  4  +
F#|-----------------------------------------|-----------------------------------------|
C#|-----------------------------------------|-----------------------------------------|
G#|-----------------------------------------|-----------------------------------------|
C#|--3---------3---------3----3----3----3---|--3---------3---------3----3----3----3---|


   1  +  2  +  3  +  4  +   1  +  2  +  3  +  4  +
F#|-----------------------------------------|-----------------------------------------|
C#|-----------------------------------------|-----------------------------------------|
G#|-----------------------------------------|-----------------------------------------|
C#|-/7---------7---------7----7----7----7---|--7---------7---------7----7----7----7---|


Chorus 3:

   1  +  2  +  3  +  4  +   1  +  2  +  3  +  4  +
F#|-----------------------------------------|-----------------------------------------|
C#|-----------------------------------------|-----------------------------------------|
G#|-----------------------------------------|-----------------------------------------|
C#|--0---------0---------0----0----0----0---|--5---------5---------5----5----5----5---|


   1  +  2  +  3  +  4  +   1  +  2  +  3  +  4  +
F#|-----------------------------------------|-----------------------------------------|
C#|-----------------------------------------|-----------------------------------------|
G#|-----------------------------------------|-----------------------------------------|
C#|--3---------3---------3----3----3----3---|--2---------2---------2----2----2----2---|


   1  +  2  +  3  +  4  +   1  +  2  +  3  +  4  +
F#|-----------------------------------------|-----------------------------------------|
C#|-----------------------------------------|-----------------------------------------|
G#|-----------------------------------------|-----------------------------------------|
C#|--0---------0---------0----0----0----0---|--5---------5---------5----5----5----5---|


   1  +  2  +  3  +  4  +   1  +  2  +  3  +  4  +
F#|-----------------------------------------|-----------------------------------------|
C#|-----------------------------------------|-----------------------------------------|
G#|-----------------------------------------|-----------------------------------------|
C#|--3---------3---------3----3----3----3---|--2---------2---------2----2----2----2---|


Chorus 4/Outro:

   1  +  2  +  3  +  4  +   1  +  2  +  3  +  4  +
F#|-----------------------------------------|-----------------------------------------|
C#|-----------------------------------------|-----------------------------------------|
G#|-----------------------------------------|-----------------------------------------|
C#|--0----0----0----0----0----0----0----0---|--5----5----5----5----5----5----5----5---|


   1  +  2  +  3  +  4  +   1  +  2  +  3  +  4  +
F#|-----------------------------------------|-----------------------------------------|
C#|-----------------------------------------|-----------------------------------------|
G#|-----------------------------------------|-----------------------------------------|
C#|--3----3----3----3----3----3----3----3---|--2----2----2----2----2----2----2----2---|


   1  +  2  +  3  +  4  +   1  +  2  +  3  +  4  +
F#|-----------------------------------------|-----------------------------------------|
C#|-----------------------------------------|-----------------------------------------|
G#|-----------------------------------------|-----------------------------------------|
C#|--0----0----0----0----0----0----0----0---|--5----5----5----5----5----5----5----5---|


   1  +  2  +  3  +  4  +   1  +  2  +  3  +  4  +
F#|-----------------------------------------|-----------------------------------------|
C#|-----------------------------------------|-----------------------------------------|
G#|-----------------------------------------|-----------------------------------------|
C#|--3----3----3----3----3----3----3----3---|--2----2----2----2----2----2----2----2---|


***********************************

| /  Slide up

***********************************

Almost there ...

Sign in to get your own page with links to favourite songs and more. You are just one click away...

Login with Facebook Login with Google