Log in

One click and you are in

Login with Facebook Login with Google

Why sign up and log in

Guitar Tabs Explorer
The Darkness tabs for Love on the rocks with no ice

Love On The Rocks With No Ice tab by The Darkness

The Darkness tabs for Love on the rocks with no ice

Guitar tabs

Title: Love On The Rocks With No Ice
Album: Permission to Land

Tabbed by: James Craven  cravenelli@hotmail.com

Intro:
|-----------------------------------------------------------------------|
|-----------------------------------------------------------------------|
|-----------------------------------------------------------------------|
|-----------------------------7-------5---------------------------------|
|-----7---------5---------5h7---5h7p5---5-0---0-----7--------5----------|
|-5h7----5h7p5----5-0---0-----------------------5h7----5h7p7----5-0---0-|


Pre Verse:
|--9----9----10--10---11--11----11--------------------------------------|
|--10---10---11--11---12--12----12--------------------------------------|
|--9----9----10--10---11--11----11--------------------------------------|
|-----------------------------------------------------------------------|
|-----------------------------------------------------------------------|
|-----------------------------------------------------------------------|


Pre Verse: (single note part)
|-----------------------------------------------------------------------|
|-----------------------------------------------------------------------|
|-----------------------------------------------------------------------|
|------------------------------5--7-------------------------------------|
|-------5-------7~------5-----------7------------5-7--7--5--------------|
|--7p5-----5h7-------------------------7---5-7--------------------------|


Verse:
|-----------------------------------------------------------------------|
|-----------------------------------------------------------------------|
|-------2---------3-----------2-2-----2----3----------------------------|
|--2-2--2--2-2----3---5-5-5---2-2--5--2----3--5-5-5---------------------|
|--2-2--0--2-2----1---5-5-5---0-0--5--0----1--5-5-5---------------------|
|--0-0-----0-0--------3-3-3--------3----------3-3-3---------------------|


Pre Chorus:
|-----------------------------------------------------------------------|
|-----------------------------------------------------------------------|
|-------2-2-2----------2-2-------(Play This Part Last Time)-------------|
|--2-2--2-2-2--2-2-2---2-2------------2-2-2-2-2-2-2---------------------|
|--2-2--0-0-0--2-2-2---0-0------------2-2-2-2-2-2-2---------------------|
|--0-0---------0-0-0------------------0-0-0-0-0-0-0---------------------|


Pre Chorus: (Higher Pitched Part)
|--1--2--3--4--5--6--7--8--9---10--11--12--13--14-----------------------|
|--2--3--4--5--6--7--8--9--10--11--12--13--14--15-----------------------|
|--1--2--3--4--5--6--7--8--9---10--11--12--13--14-----------------------|
|-----------------------------------------------------------------------|
|-----------------------------------------------------------------------|
|-----------------------------------------------------------------------|


Chorus:
|-----------------------------------------------------------------------|
|-----------------------------------------------------------------------|
|----------------2--------------2-2-------------------------------2-----|
|-5--2--2--2--2--2--5--2--2--2--2-2--2-------5--2-----2-----2--2--2-----|
|-5--2--2--2--0--0--5--2--2--2--0-0--2-------5--2-----2-----2--0--0-----|
|-3--0--0--0--0-----3--0--0--0-------0-------3--0-----0-----0--0--------|

|-----------------------------------------------------------------------|
|-----------------------------------------------------------------------|
|------------------2-2~-------------------------------------------------|
|--5-5-5---2-2-2---2-2~-------------------------------------------------|
|--5-5-5---2-2-2---0-0~-------------------------------------------------|
|--3-3-3---0-0-0--------------------------------------------------------|


Finale:
|-15^ ~---15h16p15--------------------------------------------15-16-15--|
|-15^ ~------------15-16--------------------------------15-16-----------|
|------------------------15-16--------------------15-16-----------------|
|------------------------------15-16-------15-16------------------------|
|------------------------------------15-16------------------------------|
|-----------------------------------------------------------------------|

|-15h16p15-(3times)---15h18p15---(10 Times)---------------------15^ ~---|
|-------------------------------------------15h18p15--(3 Times)-15^ ~---|
|-----------------------------------------------------------------------|
|-----------------------------------------------------------------------|
|-----------------------------------------------------------------------|
|-----------------------------------------------------------------------|


End Chords:
|-----------------------------------------------------------------------|
|-----------------------------------------------------------------------|
|--2--------2------2-----2----2---2--2--2-2-2-2-2-2-2-2~-------2--------|
|--2--------2------2-----2----2---2--2--2-2-2-2-2-2-2-2~-------2--2-----|
|--0--------0------0-----0----0---0--0--0-0-0-0-0-0-0-0~-------0--2-----|
|-----------------------------------------------------------------0-----|

Song Order:

Intro
Pre Verse

Verse (2 times)
Pre Verse: Single Note

Verse (2 times)

Pre Chorus (7 Times)

Pre Chorus: High Pitched

Chorus (2 times)
1st Solo

Verse (4 times)

Pre Chorus (7 times)

Pre Chorus: High Pitched

Chorus (2 times)
2nd Solo

Chorus
3rd Solo

Chorus (slightly palm muted)
Finale
End Chords


This is all my own work.
I just make the solos up, they sound alright, just improvise.

_________________________________________________________________
ⓘ Guitar tab for 'Love On The Rocks With No Ice' by The Darkness, a rock band formed in 2000 from Lowestoft, England. The Darkness is known for their happy rock/pop music.

Almost there ...

Sign in to get your own page with links to favourite songs and more. You are just one click away...

Login with Facebook Login with Google