Log in

One click and you are in

Login with Facebook Login with Google

Why sign up and log in

Guitar Tabs Explorer
The Darkness tabs for Love is only a feeling

Guitar tabs

Song Title :     love is only a feeling

Artist :         The Darkness

Album :          Permission to land (track 5)

Transcribed By : James Headlam


I've only bothered to transcribe the intro so far  (all my own work by
 the way) but its better that nothing you dogs........



tuning : standard - EADGBe


intro - guitar 1

[-------------------------------------------------------------]
[-------------------------------------------------------------]
[-14/16--16--16-16-16\14-14-14-14-----------------------12----]
[---------------------------------12-12h14-16--14-12----------]
[----------------------------------------------------14-------]
[-------------------------------------------------------------]

[--------17----------17----17----17------17----17-------------]
[-17/19-----19-17/19----19----19----17------------------------]
[-------------------------------------------19----18---16-14--]
[-------------------------------------------------------------]
[-------------------------------------------------------------]
[-------------------------------------------------------------]

[-------------------------------------------------------------]
[------------------------------------15-15h17--17^18^17p15----]
[-14/16--16--16-16-16\14-14-14-14/16-----------------------16-]
[-------------------------------------------------------------]
[-------------------------------------------------------------]
[-------------------------------------------------------------]

[-19-19-19/17-17-17/15-15-15/14-14-14-------------------------]
[-------------------------------------15-17~~~~~~~~-----------]
[-------------------------------------------------------------]
[-------------------------------------------------------------]
[-------------------------------------------------------------]
[-------------------------------------------------------------]

intro - guitar 2

[-------------------------------------------------------------]
[-------------------------------------------------------------]
[------------------7------------------------------------------]
[-5----------------7----------------7---------x-x-----4--5----]
[-5----------------5----------------7---------x-x-----4--5----]
[-3---------------------------------5---------x-x-----2--3----]

[-------------------------------------------------------------]
[-------------------------------------------------------------]
[------------------7------------------------------------------]
[-5----------------7----------------7---------x-x-----7--7----]
[-5----------------5----------------7---------x-x-----7--7----]
[-3---------------------------------5---------x-x-----5--5----]

[-------------------------------------------------------------]
[-------------------------------------------------------------]
[------------------7------------------------------------------]
[-5----------------7----------------7---------x-x-----4--5----]
[-5----------------5----------------7---------x-x-----4--5----]
[-3---------------------------------5---------x-x-----2--3----]

[-------------------------------------------------------------]
[-------------------------------------------------------------]
[------------------7------------------------------------------]
[-5----------------7----------------7---------x-x-----7--7----]
[-5----------------5----------------7---------x-x-----7--7----]
[-3---------------------------------5---------x-x-----5--5----]



.............that should be enough to keep you going for moment!


thanks for the custom

please come again.

Other versions of Love Is Only A Feeling

Love is only a feelingChords

Almost there ...

Sign in to get your own page with links to favourite songs and more. You are just one click away...

Login with Facebook Login with Google