GuitarTabsExplorer icon
GuitarTabsExplorer icon

Log in

Songbook

  • Log in to add and see bookmarks

Last visited songs

    No songs visited yet...

I Believe In A Thing Called Love by The Darkness

Solo tabs

1st Solo

----------------------------------16b17-----
----------17--------17----------------------
---16b18------16b17-------18/16-------------
--------------------------------------------
--------------------------------------------
--------------------------------------------

--------------------------------------------
--17--------------------------15b17vvvvvvvvv
--------16---13b14--------------------------
--------------------14----------------------
--------------------------------------------
--------------------------------------------

2nd Solo


--0---0-0-0-0-0-0-----7-----7-----------0--0--0
--3/5-5-5-5-5-5-5-7b9---7b9----9/7-5-5-5--4--2-
-----------------------------------------------
-----------------------------------------------
-----------------------------------------------
-----------------------------------------------

---0-0-0-0-0-----------------------------------
--0--0-0-0-0-----------------------------------
-----1-2-4-4-----------------------------------
--------------6-6-6-4/2--2h4-4-4/6-4-2-2-------
-----------------------4-----------------------
-----------------------------------------------

--0-0-0-0-0-0-0-----------------------9--------
--5-4-0-0-0-0-0-----10b12-10b12-09b11-9-09-----
------1-1-2-4-4-----12b14-12b14-11b13---11-----
-----------------------------------------------
-----------------------------------------------
-----------------------------------------------

Other versions of I Believe In A Thing Called Love

Alternative guitar chords and tabs for I Believe In A Thing Called Love by The Darkness

VersionType
I believe in a thing called loveTabs

[ Privacy | About us ]

Welcome to the guitar community

Why join and log in?
- Get songbook with favourite songs
- Get custom made front page
- Submit chords and tabs
- Submit guitar-cover videos
- Get a lot of thumbs up for your work

Songbook

Last visited songs

Site
Home
Search
Community
Submit chords

Video

No video for this page. Check out how you can submit guitar-cover videos here

Search tabs and chords

Browse by artist

A B C D E F G H I J K L M N O P Q R S T U V W X Y Z #


Menu

Search

Video

Bookmark

Login