GuitarTabsExplorer icon
GuitarTabsExplorer icon

Log in

Songbook

  • Log in to add and see bookmarks

Last visited songs

    No songs visited yet...

I Believe In A Thing Called Love by The Darkness

I Believe In A Thing Called Love bass tab by The Darkness

Bass tabs

Artist : The Darkness
Song : I Believe in a Thing Called Love


1st Verse:

E--2----------------0-0------------4--------0-2--------
A----0-0--2-2--2-2-------2-2--0-0-----0-2-4------------
D-------------- --------------------------------------
G------------------------------------------------------

Then this takes you into the bridge:
E--2--------------0-0----------4----4-3-0--------------
A----0-0-2-2--2-2-----2-2--0-0----0--------------------
D-----------------------------------------------------
G------------------------------------------------------

Bridge:
E--0-0-0-2-22222222222---0-0-0-2-22222222222----7------
A--------------------------------------------7---7--9--
D-----------------------------------------------------
G------------------------------------------------------

E-----5--6--7777777777---------------------------------
A--/---------------------------------------------------
D-----------------------------------------------------
G------------------------------------------------------

Chorus:
E--0-2-4---4--0-2-4------------------------------------
A--------0----------0-2-4-2----------------------------
D-----------------------------------------------------
G------------------------------------------------------ x 3

then to take you into the verse:
E--4---------------------------------------------------
A----4-3-4-5-------------------------------------------
D-----------------------------------------------------
G------------------------------------------------------

you can basicly play this throughout, although in the second verse, you fill the gaps between the notes by playing each note continually until the next note.
The final bit goes:

E--0--00000000000000000-0------------------------------
A------------------------------------------------------
D-----------------------------------------------------
G------------------------------------------------------

And thats it :D

Other versions of I Believe In A Thing Called Love

Alternative guitar chords and tabs for I Believe In A Thing Called Love by The Darkness

VersionType
I believe in a thing called love (Ver. 2)Bass tabs

[ Privacy | About us ]

Welcome to the guitar community

Why join and log in?
- Get songbook with favourite songs
- Get custom made front page
- Submit chords and tabs
- Submit guitar-cover videos
- Get a lot of thumbs up for your work

Songbook

Last visited songs

Site
Home
Search
Community
Submit chords

Video

No video for this page. Check out how you can submit guitar-cover videos here

Search tabs and chords

Browse by artist

A B C D E F G H I J K L M N O P Q R S T U V W X Y Z #


Menu

Search

Video

Bookmark

Login