Log in

One click and you are in

Login with Facebook Login with Google

Why sign up and log in

Guitar Tabs Explorer
The Darkness tabs for Growing on me

Guitar tabs

Title: Growing On Me
Album: Permission to Land
 
Tabbed by: Reservoir Doggie
 
This is in drop A chord diagramD MajorD tuning. The intro/bridge is all
based around a standard A chord diagramD MajorD chord so keep that position
and play the extra notes with 1st and 4th fingers.
 
Intro: Only play A chord diagramD MajorD chord first time round.
|-2-|-2-----2-------------------|
|-3-|---3-----3-----------3-----|
|-2-|-----2-----2-------2-------|
|-0-|-------------0---0-----2-0-|
|---|---------------4-----------|
|---|---------------------------|
 
3 times then:
|-2-----2-----------------------------------------|
|---3-----3-----------3---------------------------|
|-----2-----2-------2------2-2-2------------------|
|-------------0---0-----2--2-2-2---5-4-0-5-4-0--0-|
|---------------4----------0-0-0---5-4-0-5-4-0--0-|
|----------------------------------5-4-0-5-4-0--0-|
 


Verse 1:
|------------------------------------------|
|------------------------------------------|
|------------------------------------------|
|-0-0-7-7-9-9\--0-0-7-7-9-9--7--7--5-5-4-0-|
|-0-0-7-7-9-9\--0-0-7-7-9-9--7--7--5-5-4-0-|
|-0-0-7-7-9-9\--0-0-7-7-9-9--7--7--5-5-4-0-|
 
|------------------------3-0-3-3-2-|
|------------------------3-3-3-3-3-|
|---------------2-2-2-2--2-2-2-2-2-|
|-0-0-7-7-9-9\--2-2-2-2------------|
|-0-0-7-7-9-9\--0-0-0-0------------|
|-0-0-7-7-9-9\---------------------|
 
|------------------------------------------|
|------------------------------------------|
|------------------------------------------|
|-0-0-7-7-9-9\--0-0-7-7-9-9--7--7--5-5-4-0-|
|-0-0-7-7-9-9\--0-0-7-7-9-9--7--7--5-5-4-0-|
|-0-0-7-7-9-9\--0-0-7-7-9-9--7--7--5-5-4-0-|
 
|-------------------------------|
|-------------------------------|
|---------------2-2-2-2---------|
|-0-0-7-7-9-9\--2-2-2-2-2-0-2-4-|
|-0-0-7-7-9-9\--0-0-0-0-2-0-2-4-|
|-0-0-7-7-9-9\----------2-0-2-4-|
 

Bridge: Only play A chord diagramD MajorD chord first time round.
|-2-|-2-----2-------------------|
|-3-|---3-----3-----------3-----|
|-2-|-----2-----2-------2-------|
|-0-|-------------0---0-----2-0-|
|---|---------------4-----------|
|---|---------------------------|
 
3 times then:
|-2-----2------------------------------------|
|---3-----3-----------3----------------------|
|-----2-----2-------2------2-2-2---2-2-2-2-2-|
|-------------0---0-----2--2-2-2---2-2-2-2-2-|
|---------------4----------0-0-0---0-0-0-0-0-|
|--------------------------------------------|
 

Chorus:
|----------------------------------|
|----------------------------------|
|----------------------------------|
|-4-4-4-5-5-5-5-5--7-7-7-0-0-0-0-0-|
|-4-4-4-5-5-5-5-5--7-7-7-0-0-0-0-0-|
|-4-4-4-5-5-5-5-5--7-7-7-0-0-0-0-0-|
 
|----------------------------------|
|----------------------------------|
|----------------------------------|
|-9-9-9-5-5-5-5-5--7-7-7-0-0-0-0-0-|
|-9-9-9-5-5-5-5-5--7-7-7-0-0-0-0-0-|
|-9-9-9-5-5-5-5-5--7-7-7-0-0-0-0-0-|
 
|----------------------------------|
|----------------------------------|
|----------------------------------|
|-4-4-4-5-5-5-5-5--7-7-7-0-0-0-0-0-|
|-4-4-4-5-5-5-5-5--7-7-7-0-0-0-0-0-|
|-4-4-4-5-5-5-5-5--7-7-7-0-0-0-0-0-|
 
|---------------------------------|
|---------------------------------|
|---------------------------------|
|-7-7-7-7-7-7-7-7--5-4-0-5-4-0--0-|
|-7-7-7-7-7-7-7-7--5-4-0-5-4-0--0-|
|-7-7-7-7-7-7-7-7--5-4-0-5-4-0--0-|
 


Verse 2:
|------------------------------------------|
|------------------------------------------|
|------------------------------------------|
|-0-0-7-7-9-9\--0-0-7-7-9-9--7--7--5-5-4-0-|
|-0-0-7-7-9-9\--0-0-7-7-9-9--7--7--5-5-4-0-|
|-0-0-7-7-9-9\--0-0-7-7-9-9--7--7--5-5-4-0-|
 
|-------------------------------|
|-------------------------------|
|---------------2-2-2-2---------|
|-0-0-7-7-9-9\--2-2-2-2-2-0-2-4-|
|-0-0-7-7-9-9\--0-0-0-0-2-0-2-4-|
|-0-0-7-7-9-9\----------2-0-2-4-|
 

Pre-Solo:
|-3-3-3-2-2-0-0-0-2-2-2-|
|-3-3-3-3-3-3-3-3-3-3-3-|
|-2-2-2-2-2-2-2-2-2-2-2-|
|-----------------------|
|-----------------------|
|-----------------------|
 
|-3-3-3-2-2-0-0----|
|-3-3-3-3-3-3-3----|
|-2-2-2-2-2-2-2----|
|---------------\0-|
|---------------\0-|
|---------------\0-|
 

Song Order:

Intro

Verse 1

Bridge

Chorus

Verse 2

Bridge

Chorus
Pre-Solo

Solo 1

Chorus

Solo 2
 
This is all my own work.
I'll add the solos at a later date if
I can work them out. Don't hold your breath...!

Other versions of Growing On Me

Growing on MeChords

Almost there ...

Sign in to get your own page with links to favourite songs and more. You are just one click away...

Login with Facebook Login with Google