Log in

One click and you are in

Login with Facebook Login with Google

Why sign up and log in

Guitar Tabs Explorer
Bobby Darin bass tabs for Beyond the sea

Bass tabs

Beyond The Sea.btab
Bobby Darin
TablEdited by Poppamies

Tuning : E A D G 	Time Signature: 4/4

 tempo 138    |    |    |    |    |    |
|--------------------------------|--------------------------------|
|3-------3-------0---------------|--------------------------------|
|------------------------3/--2---|1-------0---------------3-------|
|--------------------------------|----------------3---------------|

 |    |    |    |    |    |    |    |
|----------------2---------------|0-------3-------5---------------|
|3-------3---------------0-------|--------------------------------|
|--------------------------------|------------------------3-------|
|--------------------------------|--------------------------------|

 |    |    |    |    |    |    |    |
|--------------------------------|0-------3-------5---------------|
|3-------2-------0---------------|--------------------------------|
|------------------------3-------|------------------------3-------|
|--------------------------------|--------------------------------|

 |    |    |    |    |    |    |    |
|------------------------2-------|0-------3-------5---------------|
|3-------2-------0---------------|--------------------------------|
|--------------------------------|------------------------3-------|
|--------------------------------|--------------------------------|

 |    |    |    |    |    |    |    |
|--------0-------2---------------|--------2-------0-------3-------|
|3-------------------------------|0-------------------------------|
|------------------------3-------|--------------------------------|
|--------------------------------|--------------------------------|

 |    |    |    |    |    |    |    |
|2-----------------------2-------|3-------0-------2---------------|
|--------3-------0---------------|------------------------0-------|
|--------------------------------|--------------------------------|
|--------------------------------|--------------------------------|

 |    |    |    |    |    |    |    |
|0-------2-------3-------5-------|----------------0---------------|
|--------------------------------|3-------0---------------8-------|
|--------------------------------|--------------------------------|
|--------------------------------|--------------------------------|

 |    |    |    |    |    |    |    |
|7-------5-------2-------0-------|5-------3-------2-------5-------|
|--------------------------------|--------------------------------|
|--------------------------------|--------------------------------|
|--------------------------------|--------------------------------|

 |    |    |    |    |    |    |    |
|--------------------------------|--------0-----------------------|
|3-------2-------0---------------|------------------------2-------|
|------------------------3-------|1---------------3---------------|
|--------------------------------|--------------------------------|

 |    |    |    |    |    |    |    |
|--------------------------------|--------0-----------------------|
|3-------2-------0---------------|------------------------2-------|
|------------------------3-------|1---------------3---------------|
|--------------------------------|--------------------------------|

 |    |    |    |    |    |    |    |
|--------0-------2---------------|--------7-------5-------3-------|
|3-----------------------0-------|0-------------------------------|
|--------------------------------|--------------------------------|
|--------------------------------|--------------------------------|

 |    |    |    |    |    |    |    |
|2-----------------------2-------|3-------0-------2---------------|
|--------3-------0---------------|------------------------0-------|
|--------------------------------|--------------------------------|
|--------------------------------|--------------------------------|

ⓘ Bass guitar tab for 'Beyond The Sea' by Bobby Darin, a male rock & roll artist from Bronx, New York, USA. Bobby Darin was born in 1936. He passed away in 1973. Bobby Darin was known for his happy rock/pop music.

Almost there ...

Sign in to get your own page with links to favourite songs and more. You are just one click away...

Login with Facebook Login with Google