Log in

One click and you are in

Login with Facebook Login with Google

Why sign up and log in

Guitar Tabs Explorer
Danzig bass tabs for When death had no name

Bass tabs

Album: Dirty Black Summer singl
Tabbed by: Kevan (amidemn138@aol.com

Tune 1 half step dow

beginning
Gb--------------------
Db--------------------
Ab--------------------
Eb--0--0-0--2--2-2-3-2-  repea
verse
Gb---------------------------
Db------6-----6-----6-------1
Ab---------------------------
Eb--5-5---7-7---8-8---10-10--

repeat beginnin

Gb----------------------------------
Db----------------------------------
Ab-----------2-2-2-2--etc.----------
Eb---3-3-3-3--etc.-------5-5-5-5--etc

Fast par

Gb--------------------------------------------------
Db-------------------------4-4--6-------------------
Ab--6-6-6-6-6-6-6-6-6-6-6-------------------------4-
Eb---------------------------------5-5--7-7--8-8----

endin

Gb-----------------------------------------------
Db-----------------------------------------------
Ab--4-4-4-4-4-4-4-4--2-2-2-2----------4-4-4-4-etc
Eb----------------------------5-5-5-5------------

Gb----------------
Db----------------
Ab--7-7-7-7-------
Eb----------7-7-7-

Almost there ...

Sign in to get your own page with links to favourite songs and more. You are just one click away...

Login with Facebook Login with Google