Log in

One click and you are in

Login with Facebook Login with Google

Why sign up and log in

Guitar Tabs Explorer
Danzig bass tabs for Not of this world

Bass tabs

Danzig - Not Of This World
Album - Danzig I
Bassist: Eerie Von

Tuning(E,A,D,G)
Tabbed By Metallicaslayer22
Intro
G-----------------------------------------|
D-----------------------------------------|
A-3---0----0-3---0----0-3---0----0-33-----|
E---3----------3----------3-----------333-|


Verse
G-----------------------------------------|
D-----------------------------------------|
A-----------------------------------------|
E-77777777777-333333333333-777777777777-0-|


Chorus:
G-----------------|
D-----------------|
A-----------------|
E-5555555-888-333-| x's 8


Verse
G----------------------------------------------------|
D----------------------------------------------------|
A----------------------------------------------------|
E-77777777777-333333333333-777777777777-000000000000-|

G----------------------------------------------------|
D----------------------------------------------------|
A----------------------------------------------------|
E-77777777777-333333333333-8888888-7777777-3333333-0-|

1st solo/Chorus
G--------------------|
D--------------------|
A---------(TENS)-----|
E-7777777-101010-555-| x's 9

Verse
G----------------------------------------------------|
D----------------------------------------------------|
A----------------------------------------------------|
E-77777777777-333333333333-777777777777-000000000000-|

G----------------------------------------------------|
D----------------------------------------------------|
A----------------------------------------------------|
E-77777777777-333333333333-8888888-7777777-3333333-0-|

2nd solo/Chorus
G--------------------|
D--------------------|
A--------------------|
E-5555555-888-333----| x's 8


Outro
G-------------------------|
D-------------------------|
A-0---0-3---0----0-3---0--|
E---------3----------3----|

G---------------------------------------------------------|
D---------------------------------------------------------|
A----------------------(Hit Five As Many Times Needed)----|

Almost there ...

Sign in to get your own page with links to favourite songs and more. You are just one click away...

Login with Facebook Login with Google