Log in

One click and you are in

Login with Facebook Login with Google

Why sign up and log in

Guitar Tabs Explorer
Danzig bass tabs for Girl

Bass tabs

Girl
Danzig
Danizg II- Lucifuge

When the bass comes in do an up scale thing on A

Intro:
G----------------------------------------|
D----------------------------------------|
A---------5~------10~----------5~---10~--|
E--0~---5~-------------0~--5~------------|

G-------------------------------------|
D--------------5~---------------------|
A--------3~--5~-------------5~----10~-|
E-0-3-0-------------0~--5~------------|
Verse:
G------------------I-------|
D------------------I-------|
A----3~---0~--5~---I-------|
E-0~-------------0-I-0-3-0-|


Pre-Chorus:
G---------------------|
D---------------------|
A-2-2-2-2-2-2-2-2-2-2-|
E---------------------|


Chorus:
G-------------------------------------------------|
D-------------------------------------------------|
A---------5~------10~----7---7-----5~---10~-------|
E--0~---5~------------0~---0----5~----------0-3-0-|

Bridge/Solo:
G----------------------------|
D----------------------------|
A--------5-7-----5-7-7--5----|
E--5-5-5------5------------7-|

G---------------------------|
D---------------------------|
A-------5-7--0-7--0-6-5-3-0-|
E-5-5-5---------------------|

G----------------------------|
D----------------------------|
A--------5-7-----5-7-7--5----|
E--5-5-5------5------------7-|

G------------------------------|
D------------------------------|
A-------5-7--------------------|
E-5-5-5--------5-5-5-5-5-5-5-5-|

G--------------------------|
D--------------------------|
A--------7-9----7-9-9-7----|
E-7-7-7------7-----------9-|

G----------------------------------|
D----------------------------------|
A--------7-9-----------------------|

Almost there ...

Sign in to get your own page with links to favourite songs and more. You are just one click away...

Login with Facebook Login with Google