Log in

One click and you are in

Login with Facebook Login with Google

Why sign up and log in

Guitar Tabs Explorer
Danzig bass tabs for Bodies

Bass tabs

Band:
Danzig
Album:
Danzig III: How The Gods Kill

Tuning: From bottom to top:Gb Db Ab Eb

Intro:
Gb|--------------------|
Db|--------------------|
Ab|----5-4-4---5-4/1-1-|
Eb|--3-------3---------|


Verse:
Gb|--------------------|
Db|--------------------|
Ab|----5-4-4---5-4/1-1-|
Eb|--3-------3---------|


Chorus:
Gb|--------------------|
Db|--------------------|
Ab|----5-4-4---5-4/1-1-|
Eb|--3-------3---------|
This is played over and over.
It's fun and very simple to play.

Almost there ...

Sign in to get your own page with links to favourite songs and more. You are just one click away...

Login with Facebook Login with Google