Log in

One click and you are in

Login with Facebook Login with Google

Why sign up and log in

Guitar Tabs Explorer
Daniel Caesar bass tabs for Japanese denim

Bass tabs

Verse 1:                                                                      Spotify   an*lisa
G|-----------------------------------------------10--------------------------|   V V       V V
D|------------------------8--------------------------------------------------|  0:06      0:04
A|6------------6-8/10------------------6-8/10-8------6h8~~-----6-6/8-------4~|
E|---------6/8--------6~~---4h6~~-6/8----------------------6/8-------7~-4~---|

G|-------------8-------------------------------------------10----------------|
D|---------------------------------------------------------------------------|  0:27      0:25
A|--4-4--4/6~~----4h6~~-6--------8--------------6-8/10-8~~-----6h8~~-----6---|
E|-4-------------------------6~~----4h6~~---6/8----------------------6/8-----|

G|---------------------------------------------------------------------------|
D|---------------------------------------------------------------------------|  0:45      0:43
A|6/8-----6------------------------/18~--------------------------------------|
E|----7~~---7-8-9~~--7-9-9--9/11~~------\11----------------------------------|
Chorus:
G|---------------------------------------------------------------------------|
D|----13-------------8-8-----8-----------/15~~-------------------------------|  0:56      0:54
A|--13--13----------8-8-------8/10-6-8~~-------15\8~~-6h8-8-6h8-10/11-11----6|
E|--------11-13/6~~-----9\6~---------------------------------------------7~--|

G|-------------------8-----------------------------------------10------------|
D|-6------------------------------------8------------------------------------|  1:10      1:08
A|---4~~-2/4-4-4/6~~----4h6~~-6-5-3-----------------6-8/10-8~~-----6h8~~-8-10|
E|----------------------------------6~~---4h6~~-6/8--------------------------|

G|---------------------------------------------------------------------------|
D|------------------------11-------------------------------------------------|  1:34      1:32
A|-11-11-11-11----------11-------4--6----------------------------------------|
E|-------------7-9-11-9------9-6---6-----------------------------------------|


Verse 2:
G|-----------------------------------------------10--------------------------|
D|------------------------8--------------------------------------------------|  1:42      1:40
A|-------------6-8/10------------------6-8/10-8------6h8~~-----6-6/8-------4~|
E|---------6/8--------6~~---4h6~~-6/8----------------------6/8-------7~-4~---|

G|---------------------------------------------------------10----------------|
D|-------------8-----------------8-8-----------------------------------------|  1:59      1:57
A|--4-4--4/6~~----4h6~~-6---0-------8-----------6-8/10-8~~-----6h8~~-----6---|
E|-4-------------------------6~~-----6~~----6/8----------------------6/8-----|


G|---------------------------------------------------------------------------|
D|---------------------------------------------------------------------------|  2:19      2:17
A|6/8-----6------------------------/18~--------------------------------------|
E|----7~~---7-8-9~~--7-9-9--9/11~~------\11----------------------------------|         Stops Here


Chorus:
G|---------------------------------------------------------------------------|
D|----13-------------8-8-----8-----------/15~~-------------------------------|  2:29
A|--13--13----------8-8-------8/10-6-8~~-------15\8~~-6h8-8-6h8-10/11-11----6|
E|--------11-13/6~~-----9\6~---------------------------------------------7~--|

G|-------------------8-----------------------------------------10------------|
D|-6------------------------------------8------------------------------------|  2:45
A|---4~~-2/4-4-4/6~~----4h6~~-6-5-3-----------------6-8/10-8~~-----6h8~~-8-10|
E|----------------------------------6~~---4h6~~-6/8--------------------------|

G|---------------------------------------------------------------------------|
D|------------------------11-------------------------------------------------|  3:06
A|-11-11-11-11----------11-------4-------------------------------------------|
E|-------------7-9-11-9------9-6---6-----------------------------------------|


Outro:
G|---------------------------------------------------------------------------|
D|---------------------------------------------------------------------------|  3:11
A|---------------------------------------0~~-00~~-00~~-00-0-0-2~~-22~~-22~~--|
E|3~~-33~~-3~~-33~~-32~~-22~~-2~~-22-5-2-------------------------------------|

G|-------------------------------------------------10------------------------|
D|---------------------------8-----------------------------------------------|  3:33
A|22-2--6---------6-8/10----------------6-8/10-8~~----6h8~~-6-8-6------6-6/8-|
E|-------------6/8-------6~~---4h6~~-6/8--------------------------4-6/8------|


G|-----------------------------------------------------------------------10--|
D|-------------------------------------------------8-------------------------|  3:54
A|---6----------------------------------6-8/10----------------6-8/10-8~~-----|
E|7~----7-8-9~~-7-9-9--9/11~~---11---6/8-------6~~---4h6~~-6/8---------------|


G|------------------------------------------|
D|------------------------------------------|
A|-6h8~~----6-6/8----6----------------------|
E|-------6/8------7~---7-8-9~~--7-9-9---11--|

Almost there ...

Sign in to get your own page with links to favourite songs and more. You are just one click away...

Login with Facebook Login with Google