Log in

One click and you are in

Login with Facebook Login with Google

Why sign up and log in

Guitar Tabs Explorer
Dangelo bass tabs for Lady

Bass tabs

  • Difficulty: Beginner
Tuning: Drop D (D A D G)

(pretty much the whole song)

G|---------------------------------------------------------------------------|
D|---------------------------------------------------------------------------|
A|---------------------------------------------------------------------------|
D|-----1----4----6-----------6----1----2-------------------------------------|


G|---------------------------------------------------------------------------|
D|---------------------------------------------------------------------------|
A|---------------------------------------------------------------------------|
D|-----1----4----6-----------6----1----2-------------------------------------|


weird diminished passage at 2.28:

G|---------------8-----------------------------------------------------------|
D|------------7-----8-7-7-----7-7----1-2-------------------------------------|
A|--------6-----------------7-------------2----------------------------------|
D|---------------------------------------------------------------------------| x4

Almost there ...

Sign in to get your own page with links to favourite songs and more. You are just one click away...

Login with Facebook Login with Google