Log in

One click and you are in

Login with Facebook Login with Google

Why sign up and log in

Guitar Tabs Explorer
Dance Hall Crashers tabs for Street sweeper

Guitar tabs

Sent: Thursday, January 15, 1998 8:28 AM

Band: Dance Hall Crashers
Album: The Old Record (1989-1992)
Written by Jaime McCormick, Elyse Rogers, and Ingrid Jonsson
Transcribed by Luke Knox (lukeknox@iname.com) e-mail me!

This is a real easy song to play, and I'm pretty sure this is right, but
let me know if you have a better way of playing this song.

Main/intro riff:
E-------------------------
B-------------------------
G-------------------------
D-------------------------
A--------1-0-1--5-4-5-6-5-
E--3-2-3------------------

The verse is just two chords:
     A chord diagramG minorGm    A chord diagramC minorCm
E----3-----3-----
B----3-----4-----
G----3-----5-----
D----5-----5-----
A----5-----3-----
E----3-----3-----

This is played during the horn solo:
    A chord diagramG minorGm    A chord diagramC minorCm    A chord diagramF minorFm    A chord diagramG minorGm
E---3-----3-----1-----3---
B---3-----4-----1-----3---
G---3-----5-----1-----3---
D---5-----5-----3-----5---
A---5-----3-----3-----5---
E---3-----3-----1-----3---


That's it!  I hope you like it. Please e-mail me if you have any
questions, comments, requests, or want to talk about DHC!


Luke

Almost there ...

Sign in to get your own page with links to favourite songs and more. You are just one click away...

Login with Facebook Login with Google