Log in

One click and you are in

Login with Facebook Login with Google

Why sign up and log in

Guitar Tabs Explorer
Dance Hall Crashers bass tabs for Lost again

Bass tabs

INTRO
G|--------------------------------------|
D|--------6------6-----------4------4---|
A|-7-7--7---7--7---7--7-7--7---7--7---7-|
E|--------------------------------------|
VERSE (4x):
G|-------------|--------------|------------|------------|
D|-------------|--------------|-----666666-|-4----------|
A|-77--6--4--7-|----4--7--4-7-|-4----------|-------4--6-|
E|-------------|-5------------|------------|----7-------|

G|------------|-----------|--------------------|
D|------------|------4----|--------------------|
A|----4--5--4-|---6-----6-|-77-7-44-4-5-5-6666-|
E|-5----------|-7---------|--------------------|


CHORUS (2x):
G|-----------------|-----------------|----------------------------|
D|-7-7-----7-7-----|-9-9-----9-9-----|----------------------------|
A|-----7-7-----7-7-|-----9-9-----9-9-|-77777777-55555555-44444444-|
E|-----------------|-----------------|----------------------------|


OUTRO (4x):
G|------------|----------------|---------------|------------|
D|--6---------|----6-----------|---------------|------------|
A|------7-----|---------7------|----9---7------|-----9---7--|
E|------------|----------------|---------------|------------|

Ends on E:
G|------|
D|------|
A|------|
E|--0---|

Song Structure:

Intro (guitar)
Fill

Verse

Chorus
Fill

Verse

Chorus

Verse (played during guitar solo)

Chorus

Outro
End

Almost there ...

Sign in to get your own page with links to favourite songs and more. You are just one click away...

Login with Facebook Login with Google