GuitarTabsExplorer icon
GuitarTabsExplorer icon

Log in

Songbook

  • Log in to add and see bookmarks

Last visited songs

    No songs visited yet...

Go by Dance Hall Crashers

Bass tabs

-=-=-=-=-=- GO -=-=-=-=-=-
     by Dance Hall Crashers from the album "Lockjaw"
      Tabbed by Dave Miller ([email protected])

-=-=-=-=-=-=-=-=-=-=-=-=-=-=-=-=-=-=-=-=-=-=-=-=-=-=-=-=-=-=-=-=-=-=-=-=-=-=-=-
  One of my favorite DHC tunes. It has a great kick to it
  that makes it fun to play. Really not that difficult...

-=-=-=-=-=-=-=-=-=-=-=-=-=-=-=-=-=-=-=-=-=-=-=-=-=-=-=-=-=-=-=-=-=-=-=-=-=-=-=-

 Intro

||-----------------------------------------------------------
||*----------------------------------------------------------
||*--------7-------------7-----------------------------------
||---7--5-----7----7--5-----7--------------------------------
 Chorus

||-----------------------------------------------------------
||*----------------6-----------------------------------------
||*----6-----4-5-7---7---------------------------------------
||---7---7-5-----------7-------------------------------------

   Wanna go with you but I think I'll stay...


 Verse

||-----------------------------------------------------------
||*----------------------------------------------------------
||*----------------7--7-7-7-7-7-7----------------------------
||---9-9-9--5-5-5--------------------------------------------

   wandered off without you....


 Interlude

||-----------------------------------------------------------
||*----------------------------------------------------------
||*-----6--9--6-----------4----------------------------------
||---7-----------0--4--5-------------------------------------

   Your destiny can be what you make it...


-=-=-=-=-=-=-=-
  LYRICS
-=-=-=-=-=-=-=-

(Chorus)
Wanna go with you but I think I'll stay
Wanna go with you but I think I'll stay
Wanna go with you but I think I'll stay
Wanna go with you but I think I'll stay

It's been 10 years since I left my home and
wandered off without you
Has it been that long?
It's really been that long
And in the back of my mind, I still hear you
Calling to me, shouting to me, grabbing my attention

(Chorus)

You say that you feel trapped and do not see
an answer to the problem
I say you gotta get out
Just get up and get out
What are you afraid of?
Living, loving, hurting, crying...
It's one and all, defend your fate, your destiny can be
what you make it.....

(Chorus)

And you come to me with propositions
like you really mean them
Well I've heard them all before
So many times before
What are you afraid of?
Living, loving, hurting, crying..
It's one and all, defend your fate, your destiny
can be what you make it.....

Other versions of Go

Alternative guitar chords and tabs for Go by Dance Hall Crashers

VersionType
Good for nothinBass tabs

[ Privacy | About us ]

Welcome to the guitar community

Why join and log in?
- Get songbook with favourite songs
- Get custom made front page
- Submit chords and tabs
- Submit guitar-cover videos
- Get a lot of thumbs up for your work

Songbook

Last visited songs

Site
Home
Search
Community
Submit chords

Video

No video for this page. Check out how you can submit guitar-cover videos here

Search tabs and chords

Browse by artist

A B C D E F G H I J K L M N O P Q R S T U V W X Y Z #


Menu

Search

Video

Bookmark

Login