Log in

One click and you are in

Login with Facebook Login with Google

Why sign up and log in

Guitar Tabs Explorer
Dance Gavin Dance tabs for Pounce bounce

Guitar tabs with lyrics

Pounce Bounce - Dance Gavin Dance
-----------------------------------------------------------------------------
Tabbed by: NickTNT


Tuning:C#F#BEG#C#
NOTE:DGD probably doesn't play in this tuning, but this is the tuning I was
in when I learned this song. So if you're playing in for example, standard

tuning (EADGBe), move every note 3 frets down.


Intro
A chord diagramC#C#|--7-7--10-10-10--7-7-7--10-10-10--7-7--10-10--7-7--10-10-10--7-7-7-10-10--|
A chord diagramG#G#|--X-X--10-10-10--X-X-X--10-10-10--X-X--10-10--X-X--10-10-10--X-X-X-10-10--|
A chord diagramE MajorE |--7-7---X--X--X--7-7-7---X--X--X--7-7---X--X--7-7---X--X--X--7-7-7--X--X--|
A chord diagramBB |--6-6---9--9--9--6-6-6---9--9--9--6-6---9--9--6-6---9--9--9--6-6-6--9--9--|
A chord diagramF#F#|--7-7--10-10-10--7-7-7--10-10-10--7-7--10-10--7-7--10-10-10--7-7-7-10-10--|
A chord diagramC#C#|--------------------------------------------------------------------------|

  What's it like to be a marble? Did I get something in your eye?
|--------------19-17-19-17-19br-------------17-15-17-15~--------------------|
|--17-15-17-15------------------17-15-17-15---------------------------------|
|---------------------------------------------------------------------------|
|---------------------------------------------------------------------------|
|---------------------------------------------------------------------------|
|---------------------------------------------------------------------------|

  She's a referee and I'm lethally overdosed on pumpkin pie.
|--------------19-17-19-17-19br-------------17-15-17-15-17h19p17p15h17------|
|--17-15-17-15------------------17-15-17-15---------------------------------|
|---------------------------------------------------------------------------|
|---------------------------------------------------------------------------|
|---------------------------------------------------------------------------|
|---------------------------------------------------------------------------|

 Yes the future is mount delicious son, but the leaf changes forms continuum.
|--------------19-17-19-17-19br-------------17-15-17-15~--------------------|
|--17-15-17-15------------------17-15-17-15---------------------------------|
|---------------------------------------------------------------------------|
|---------------------------------------------------------------------------|
|---------------------------------------------------------------------------|
|---------------------------------------------------------------------------|

 My destiny is calling me, it says Jon Mess you should own a gun
|--------------19-17-19-17-19br-------------17-15-17-15-17------------------|
|--17-15-17-15------------------17-15-17-15---------------------------------|
|---------------------------------------------------------------------------|
|---------------------------------------------------------------------------|
|---------------------------------------------------------------------------|
|---------------------------------------------------------------------------|

 Feel the room filling up with smoke, (Just play these notes really fast)
|---------------------------|    |----------------------|
|---------------------------|    |----------------------|
|---------------------------| X3 |----------------------|
|---------------------------|    |----------------------|
|--7-7-7-7-5-5-5-5-5-5-2-2-2|    |---9-9-9-9-10-10-10-10|
|---------------------------|    |----------------------|

 Billowing, billowing up, holding on for the worst.
|---------------------------|    |----------------------|
|---------------------------|    |----------------------|
|---------------------------| X3 |----------------------|
|---------------------------|    |----------------------|
|--7-7-7-7-5-5-5-5-5-5-2-2-2|    |---9-9-9-9-10-10-10-10|
|---------------------------|    |----------------------|

 Rise above.
|-------------------------------------------------------|
|-------------------------------------------------------|
|-------------------------------------------------------|
|-------------------------------------------------------|
|--7-7-7-7-5-5-5-5-5-5-2-2-2-7-7-7-7-7-7-7-7-7-7-7-7-7-7|
|-------------------------------------------------------|

 (Can I get a piece of that )  Come down, in my veins.
|-----------------------|      |-------------------14h15p14p12--------|
|------------------7br--|      |-----------17--15~------------15------|
|--7---9-7~------7------|  X2  |--7---9-7~---16-----------------------|
|----0---------0--------|      |----0---------------------------------|
|------------5----------|      |--------------------------------------|
|-----------------------|      |--------------------------------------|

 (Uniquely post relapse.)The whispers start to drill. (The quota and balancing act.)
|-----------------------|      |-------------------14h15p14p12--------|
|------------------7br--|      |-----------17--15~------------15------|
|--7---9-7~------7------|  X3  |--7---9-7~---16-----------------------|
|----0---------0--------|      |----0---------------------------------|
|------------5----------|      |--------------------------------------|
|-----------------------|      |--------------------------------------|

 The pain of second place. (Can I get a piece of that )
|-----------------------|
|------------------7br--|
|--7---9-7~------7------|  Repeat Intro
|----0---------0--------|
|------------5----------|
|-----------------------|

|--7-7--10-10-10--7-7-7--10-10-10--7-7--10-10--7-7--10-10-10--7-7-7-10-10--|
|--X-X--10-10-10--X-X-X--10-10-10--X-X--10-10--X-X--10-10-10--X-X-X-10-10--|
|--7-7---X--X--X--7-7-7---X--X--X--7-7---X--X--7-7---X--X--X--7-7-7--X--X--|
|--6-6---9--9--9--6-6-6---9--9--9--6-6---9--9--6-6---9--9--9--6-6-6--9--9--|
|--7-7--10-10-10--7-7-7--10-10-10--7-7--10-10--7-7--10-10-10--7-7-7-10-10--|
|--------------------------------------------------------------------------|


  What's it like to be an atheist? Are you okay with suicide?
|--------------19-17-19-17-19br-------------17-15-17-15~--------------------|
|--17-15-17-15------------------17-15-17-15---------------------------------|
|---------------------------------------------------------------------------|
|---------------------------------------------------------------------------|
|---------------------------------------------------------------------------|
|---------------------------------------------------------------------------|

 Well it's baffling that my ears can bleed when I see your domestic thighs.
|--------------19-17-19-17-19br-------------17-15-17-15-17h19p17p15h17------|
|--17-15-17-15------------------17-15-17-15---------------------------------|
|---------------------------------------------------------------------------|
|---------------------------------------------------------------------------|
|---------------------------------------------------------------------------|
|---------------------------------------------------------------------------|

 Yes the future is kush and bubblegum, but I prefer wood to linoleum.
|--------------19-17-19-17-19br-------------17-15-17-15~--------------------|
|--17-15-17-15------------------17-15-17-15---------------------------------|
|---------------------------------------------------------------------------|
|---------------------------------------------------------------------------|
|---------------------------------------------------------------------------|
|---------------------------------------------------------------------------|

 My destiny is calling me, it says you'll be fine if you take Tums.
|--------------19-17-19-17-19br-------------17-15-17-15-17------------------|
|--17-15-17-15------------------17-15-17-15---------------------------------|
|---------------------------------------------------------------------------|
|---------------------------------------------------------------------------|
|---------------------------------------------------------------------------|
|---------------------------------------------------------------------------|


Solo NOTE: I'm pretty sure this part isn't 100% correct, but this is all
           I could come up with.

 I'm letting out, well I feel that I've dropped it all,
|---------------------------------------------------------------------------|
|--/15~--/13~--13\12------12br----------------------------------------------|
|--/16~--/14~--14\12----11--------------------------------------------------|
|--------------------/12----------------------------------------------------|
|---------------------------------------------------------------------------|
|---------------------------------------------------------------------------|
 I'm letting out, well I feel that I've rushed it,
|---------------------------------------------------------------------------|
|--/15~--/13~--13\12------12br----------------------------------------------|
|--/16~--/14~--14\12----11--------------------------------------------------|
|--------------------/12----------------------------------------------------|
|---------------------------------------------------------------------------|
|---------------------------------------------------------------------------|

|------------14-15p14--------------14-17p14---------------------------------|
|---------15----------15--------15----------15----------------12br~---------|
|--14~-14----------------14~-14----------------14~-16-------11--------------|
|---------------------------------------------------------12----------------|
|---------------------------------------------------------------------------|
|---------------------------------------------------------------------------|

(Can I get a piece of that )  Come down, in my veins.
|-----------------------|      |-------------------14h15p14p12--------|
|------------------7br--|      |-----------17--15~------------15------|
|--7---9-7~------7------|  X2  |--7---9-7~---16-----------------------|
|----0---------0--------|      |----0---------------------------------|
|------------5----------|      |--------------------------------------|
|-----------------------|      |--------------------------------------|

 The whispers start to drill.
|-----------------------|      |-------------------14h15p14p12--------|
|------------------7br--|      |-----------17--15~------------15------|
|--7---9-7~------7------|  X3  |--7---9-7~---16-----------------------|
|----0---------0--------|      |----0---------------------------------|
|------------5----------|      |--------------------------------------|
|-----------------------|      |--------------------------------------|

 The pain of second place. (Can I get a piece of that )
|-----------------------|
|------------------7br--|
|--7---9-7~------7------|  Repeat Intro
|----0---------0--------|
|------------5----------|
|-----------------------|

END

************************************

| /   slide up
| \   slide down
| h   hammer-on
| p   pull-off
| ~   vibrato
| +   harmonic
| x   Mute note
| b   Bend
| pb  Pre-bend
| br  Bend release
| pbr Pre-bend release
| brb Bend release bend

************************************

Almost there ...

Sign in to get your own page with links to favourite songs and more. You are just one click away...

Login with Facebook Login with Google