Log in

One click and you are in

Login with Facebook Login with Google

Why sign up and log in

Guitar Tabs Explorer
The Dan Band bass tabs for Total eclipse of the heart

Total Eclipse Of The Heart bass tab by The Dan Band

The Dan Band bass tabs for Total eclipse of the heart

Bass tabs

Verse 1 *let every note ring until next note:
G|------------|
D|------------|
A|------------|
E|3-----------|

G|------------|------------|------------|------------|
D|------------|------------|------------|------------|
A|------------|------------|------------|------------|
E|(3)---------|(3)---------|(3)---------|1-----------|

G|------------|------------|------------|------------|
D|------------|------------|------------|------------|
A|------------|------------|------------|------------|
E|3-----------|1-----------|6-----------|4-----------|

G|------------|------------|------------|------------|------------|
D|------------|------------|------------|------------|------------|
A|------------|------------|4----4/9----|(9)---4---4/|9-----------|
E|6-----------|4-----------|------------|------------|------------|


Chorus:
G|------------|------------|------------|------------|
D|3-3-3-3-3---|------------|------------|------------|
A|------------|5-5-5-5-5---|1-1-1-1-1---|3-3-3-3-3---|
E|------------|------------|------------|------------|

G|------------|------------|------------|------------|
D|3-3-3-3-3---|------------|------------|------2~~~~~|
A|------------|5-5-5-5-5---|1-1-1-1-1---|3--5--------|
E|------------|------------|------------|------------|

G|------------|------------|------------|------------|
D|3-3-3-3-3---|------------|------------|------------|
A|------------|5-5-5-5-5---|1-1-1-1-1---|3-3-3-3-3---|
E|------------|------------|------------|------------|

G|------------|------------|------------|------------|
D|------------|------------|------------|------------|
A|5---------5-|7---------7-|5---------5-|------------|
E|------------|------------|------------|3---------3-|

G|------------|------------|------------|------------|
D|------------|------------|------------|------------|
A|-----------/|8---------8-|7-----------|5---------5-|
E|3-3---------|------------|------------|------------|

G|------------|------------|------------|------------|
D|------------|------------|------------|------------|
A|------------|------------|------------|------------|
E|3---------3-|3-3-------3/|5---------5-|3--5--6-----|

        Verse 2:
G|------------|------------|------------|------------|
D|------------|------------|------------|------------|
A|3----------/|8-----5-----|------------|------------|
E|------------|------------|5-----6-----|(6)----6-5--|

G|------------|------------|------------|------------|
D|------------|3---3-------|------------|3----|------|
A|-------3----|------5---5-|1---1-3-----|------------|
E|3----3------|------------|------------|------------|

G|------------|-------|
D|------------|-------|
A|------------|3------|
E|6--5--3-----|-------|

G|------------|------------|------------|------------|
D|3--3-3--3-3-|------------|------------|------------|
A|------------|5--5-5--5-5-|1--1-1--1-1-|3--3-3--3-3-|
E|------------|------------|------------|------------|

G|------------|------------|------------|------------|
D|3--3-3--3-3-|------------|------------|------------|
A|------------|5--5-5--5-5-|1--1-1--1-1-|3--3-3--3-3-|
E|------------|------------|------------|------------|

G|------------|------------|------------|------------|
D|3--3-3--3-3-|------------|------------|------------|
A|------------|5--5-5--5-5-|1--1-1--1-1-|3--3-3--3-3-|
E|------------|------------|------------|------------|

G|------------|------------|------------|
D|------------|------------|------------|
A|4--4--4--4--|6--6--6--6--|8-8-6-8-----|

Almost there ...

Sign in to get your own page with links to favourite songs and more. You are just one click away...

Login with Facebook Login with Google