Log in

One click and you are in

Login with Facebook Login with Google

Why sign up and log in

Guitar Tabs Explorer
Daisy Driver bass tabs for Mya

Bass tabs with lyrics

  • Difficulty: Intermediate
Tuning: Half-Step Down (Eb Ab Db Gb)


Intro guitar:
  E
Gb|-------------------------------------------------------------------------------------|
Db|-------------------------------------------------------------------------------------|
Ab|-------------------------------------------------------------------------------------|
Eb|-------------------------------------------------------------------------------------|
  E
Gb|-----------------------------|
Db|-----------------------------|
Ab|-----------------------------|
Eb|-----------------------------|


Instrumental:
  E              E              E
Gb|-------------------------------------------------------------------------------------|
Db|-------------------------------------------------------------------------------------|
Ab|-------------------------------------------------------------------------------------|
Eb|-0--0--0-0--0-0-----------------0--0-0--0-0----12/----------0--0-0--0-0--------------|


  E
Gb|------------------------------------|
Db|---------------\14--12--------------|
Ab|------------------------14--12------|
Eb|----0--0-0--0-0-----------------12\-|

Verse 1:
  Mya, ne s'élance que dans ses rêves...
  Mya, mélomane et solitaire...
  E              E              E
Gb|-------------------------------------------------------------------------------------|
Db|-------------------------------------------------------------------------------------|
Ab|-------------------------------------------------------------------------------------|
Eb|-0--0--0-0--0-0-----------------0--0-0--0-0----12/----------0--0-0--0-0--------------|


  E
Gb|------------------------------------|
Db|---------------\14--12--------------| x2
Ab|------------------------14--12------|
Eb|----0--0-0--0-0-----------------12\-|


Chorus:
  Danse !      Sur la trance !      C'est la thèse à Mya
  Danse !      Dans nos ventres !     C'est la thèse à Mya
  E5             G              D5
Gb|-------------------------------------------------------------------------------------|
Db|-------------------------------------------------------------------------------------|
Ab|-7--7--7--7--7-7--7-7--7-7-7-----------------------------5--5--5--5--5-5--5-5--5-5-5-|
Eb|-----------------------------3--3--3--3--3-3--3-3--3-3-3-----------------------------|


 thèse à Mya
 thèse à Mya
  A5
Gb|-----------------------------|
Db|-----------------------------| x2
Ab|-----------------------------|
Eb|-5-5-5-5-5-5-5-5-5-5-5-5-5-5-|


Instrumental:
  E              E              E
Gb|-------------------------------------------------------------------------------------|
Db|-------------------------------------------------------------------------------------|
Ab|-------------------------------------------------------------------------------------|
Eb|-0--0--0-0--0-0-----------------0--0-0--0-0----12/----------0--0-0--0-0--------------|


  E
Gb|------------------------------------|
Db|---------------\14--12--------------|
Ab|------------------------14--12------|
Eb|----0--0-0--0-0-----------------12\-|


Verse 2:
  Mya, se déchaine dans le temps...
  Mya, c'est la fin de l'Angleterre...
  E              E              E
Gb|-------------------------------------------------------------------------------------|
Db|-------------------------------------------------------------------------------------|
Ab|-------------------------------------------------------------------------------------|
Eb|-0--0--0-0--0-0-----------------0--0-0--0-0----12/----------0--0-0--0-0--------------|


  E
Gb|------------------------------------|
Db|---------------\14--12--------------| x2
Ab|------------------------14--12------|
Eb|----0--0-0--0-0-----------------12\-|


Chorus:
  Danse !      Sur la trance !      C'est la thèse à Mya
  Danse !      Dans nos ventres !     C'est la thèse à Mya
  E5             G              D5
Gb|-------------------------------------------------------------------------------------|
Db|-------------------------------------------------------------------------------------|
Ab|-7--7--7--7--7-7--7-7--7-7-7-----------------------------5--5--5--5--5-5--5-5--5-5-5-|
Eb|-----------------------------3--3--3--3--3-3--3-3--3-3-3-----------------------------|


 thèse à Mya
 thèse à Mya
  A5
Gb|-----------------------------|
Db|-----------------------------| x2
Ab|-----------------------------|
Eb|-5-5-5-5-5-5-5-5-5-5-5-5-5-5-|


Bridge 1:
  E              E              E
Gb|-------------------------------------------------------------------------------------|
Db|-------------------------------------------------------------------------------------|
Ab|-------------------------------------------------------------------------------------|
Eb|-0--0--0-0--0-0----12/----------0--0-0--0-0----12/----------0--0-0--0-0----12/-------|


  E
Gb|-----------------------------|
Db|-----------------------------|
Ab|-----------------------------|
Eb|----0--0-0--0-0----12/-------|


Bridge 2:
  E5             G              D5
Gb|-------------------------------------------------------------------------------------|
Db|-------------------------------------------------------------------------------------|
Ab|-7-7-7-7-7-7-7-7-7-7-7-7-7-7-9-9-9-9-9-9-9-9-9-9-9-9-9-9-5-5-5-5-5-5-5-5-5-5-5-5-5-5-|
Eb|-------------------------------------------------------------------------------------|


  A5
Gb|-----------------------------|
Db|-----------------------------| x2
Ab|-----------------------------|
Eb|-5-5-5-5-5-5-5-5-5-5-5-5-5-5-|


Chorus:
  Danse !      Sur la trance !      C'est la thèse à Mya
  Danse !      Dans nos ventres !     C'est la thèse à Mya
  Danse !      Sur la trance !      C'est la thèse à Mya
  Danse !      Dans nos ventres !     C'est la thèse à Mya
  E5             G              D5
Gb|-------------------------------------------------------------------------------------|
Db|-------------------------------------------------------------------------------------|
Ab|-7--7--7--7--7-7--7-7--7-7-7-----------------------------5--5--5--5--5-5--5-5--5-5-5-|
Eb|-----------------------------3--3--3--3--3-3--3-3--3-3-3-----------------------------|


 thèse à Mya
 thèse à Mya
 thèse à Mya
 thèse à Mya
  A5
Gb|-----------------------------|
Db|-----------------------------| x4
Ab|-----------------------------|
Eb|-5-5-5-5-5-5-5-5-5-5-5-5-5-5-|


Outro:
  E              E              E
Gb|-------------------------------------------------------------------------------------|
Db|-------------------------------------------------------------------------------------|
Ab|-------------------------------------------------------------------------------------|
Eb|-0--0--0-0--0-0----12/----------0--0-0--0-0----12/----------0--0-0--0-0----12/-------|


  E
Gb|-----------------------------|
Db|-----------------------------|
Ab|-----------------------------|
Eb|----0--0-0--0-0--------------|


************************************

| \ Slide down
| / Slide up

************************************

Almost there ...

Sign in to get your own page with links to favourite songs and more. You are just one click away...

Login with Facebook Login with Google