Log in

One click and you are in

Login with Facebook Login with Google

Why sign up and log in

Guitar Tabs Explorer
Daisy Driver bass tabs for El loco

Bass tabs with lyrics

  • Difficulty: Intermediate
Tuning: Half-Step Down (Eb Ab Db Gb)


TUNING : Eb-Ab-Db-Gb

J'ai perdu la...
Verse 1:
  rage         gagné la raison         perdu le courage de    prier
  E      G  E      G  E      G  E      G  C        A
Gb|-------------------------------------------------------------------------------------------------|
Db|-------------------------------------------------------------------------------------------------|
Ab|-----------------------------------------------------------------3---3-3---3-3-3-0---0-0---0-0-0-|
Eb|-0---------0-3---0---------0-3---0---------0-3---0---------0-3-----------------------------------|


  ton nom     J'ai passé mon tour        perdu le contact      avec les
  E      G  E      G  E      G  E      G  C        A
Gb|-------------------------------------------------------------------------------------------------|
Db|-------------------------------------------------------------------------------------------------|
Ab|-----------------------------------------------------------------3---3-3---3-3-3-0---0-0---0-0-0-|
Eb|-0---------0-3---0---------0-3---0---------0-3---0---------0-3-----------------------------------|


  vautours     comme l'enfant sourd  qui  cherche     le son        Bénir le
  E5               G        D        E5
Gb|-------------------------------------------------------------------------------------------------|
Db|-------------------------------------------------------------------------------------------------|
Ab|-7---7-7-7-7-7-7-7---7-7-7-7-7-7-----------------5---5-5-5-5-5-5-7---7-7-7-7-7-7-7---7-7-7-7-7-7-|
Eb|---------------------------------3---3-3-3-3-3-3-------------------------------------------------|


  jour   de   nos      effusions       Sortir d'la cour   et   mettre  la
  G        D        E5               G        D
Gb|-------------------------------------------------------------------------------------------------|
Db|-------------------------------------------------------------------------------------------------|
Ab|-10--10-10-10-10-5---5-5-5-5-5-5-7---7-7-7-7-7-7-7---7-7-7-7-7-7-10--10-10-10-10-5---5-5-5-5-5-5-|
Eb|-------------------------------------------------------------------------------------------------|

  lecon       du haut d'la tour   à   tous  ces   p'tits cons
  E5               G        D        C
Gb|-------------------------------------------------------------------------------------------------|
Db|-------------------------------------------------------------------------------------------------|
Ab|-7---7-7-7-7-7-7-7---7-7-7-7-7-7-10--10-10-10-10-5---5-5-5-5-5-5-3---3-3-3-3-3-3-3---3-3-3-3-3-3-|
Eb|-------------------------------------------------------------------------------------------------|


              Locura en
          D
Gb|---------------------------------|
Db|---------------------------------|
Ab|-3---3-3-3-3-3-3-5---5-5-5-5-5-5-|
Eb|---------------------------------|


Chorus:
  Miiiiiiiiiiiiiiiiiiiiiiiiiiiiiiiiiiiiiiiiiiiiiiiiiiiiiiiiiiiiiiiiii !
  E  G E   G  E  G E   G  E  G E   G  E  G E   G  E  G E   G  E  G E   G
Gb|-------------------------------------------------------------------------------------------------|
Db|-------------------------------------------------------------------------------------------------|
Ab|-------------------------------------------------------------------------------------------------|
Eb|-0---3-0---0-3---0---3-0---0-3---0---3-0---0-3---0---3-0---0-3---0---3-0---0-3---0---3-0---0-3---|


          J'ai souillé la
  E  G E   G  E  G E   G
Gb|---------------------------------|
Db|---------------------------------|
Ab|---------------------------------|
Eb|-0---3-0---0-3---0---3-0---0-3---|


Verse 2:
  terre         tué l'ennemi         passé la frontière     avec   mon
  E      G  E      G  E      G  E      G  C        A
Gb|-------------------------------------------------------------------------------------------------|
Db|-------------------------------------------------------------------------------------------------|
Ab|-----------------------------------------------------------------3---3-3---3-3-3-0---0-0---0-0-0-|
Eb|-0---------0-3---0---------0-3---0---------0-3---0---------0-3-----------------------------------|


  étui       J'ai sorti mon flingue       buté l'incendiaire     avant   qu'il
  E      G  E      G  E      G  E      G  C        A
Gb|-------------------------------------------------------------------------------------------------|
Db|-------------------------------------------------------------------------------------------------|
Ab|-----------------------------------------------------------------3---3-3---3-3-3-0---0-0---0-0-0-|
Eb|-0---------0-3---0---------0-3---0---------0-3---0---------0-3-----------------------------------|


  dézingue     comme l'enfant simple  qui  crache  sur  la mer        Oublie le
  E5               G        D        E5
Gb|-------------------------------------------------------------------------------------------------|
Db|-------------------------------------------------------------------------------------------------|
Ab|-7---7-7-7-7-7-7-7---7-7-7-7-7-7-----------------5---5-5-5-5-5-5-7---7-7-7-7-7-7-7---7-7-7-7-7-7-|
Eb|---------------------------------3---3-3-3-3-3-3-------------------------------------------------|


  syndrôme     du      revolver        Sortir des limbes  et   fumer  l'
  G        D        E5               G        D
Gb|-------------------------------------------------------------------------------------------------|
Db|-------------------------------------------------------------------------------------------------|
Ab|-10--10-10-10-10-5---5-5-5-5-5-5-7---7-7-7-7-7-7-7---7-7-7-7-7-7-10--10-10-10-10-5---5-5-5-5-5-5-|
Eb|-------------------------------------------------------------------------------------------------|


 enfer       du haut d'nos cinq   cent  millions    d'hivers
  E5               G        D        C
Gb|-------------------------------------------------------------------------------------------------|
Db|-------------------------------------------------------------------------------------------------|
Ab|-7---7-7-7-7-7-7-7---7-7-7-7-7-7-10--10-10-10-10-5---5-5-5-5-5-5-3---3-3-3-3-3-3-3---3-3-3-3-3-3-|
Eb|-------------------------------------------------------------------------------------------------|


              Locura en
          D
Gb|---------------------------------|
Db|---------------------------------|
Ab|-3---3-3-3-3-3-3-5---5-5-5-5-5-5-|
Eb|---------------------------------|


Chorus:
  Miiiiiiiiiiiiiiiiiiiiiiiiiiiiiiiiiiiiiiiiiiiiiiiiiiiiiiiiiiiiiiiiii !
  E  G E   G  E  G E   G  E  G E   G  E  G E   G  E  G E   G  E  G E   G
Gb|-------------------------------------------------------------------------------------------------|
Db|-------------------------------------------------------------------------------------------------|
Ab|-------------------------------------------------------------------------------------------------|
Eb|-0---3-0---0-3---0---3-0---0-3---0---3-0---0-3---0---3-0---0-3---0---3-0---0-3---0---3-0---0-3---|


  E  G E   G  E  G E   G
Gb|---------------------------------|
Db|---------------------------------|
Ab|---------------------------------|
Eb|-0---3-0---0-3---0---3-0---0-3---|


Bridge:
  E   G   D E   G   D E   G   D E   G   D E   G   D E   G   D
Gb|-------------------------------------------------------------------------------------------------|
Db|-------------------------------------------------------------------------------------------------|
Ab|-------------------------------------------------------------------------------------------------|
Eb|-0-----------------------------------------------------------------------------------------------|


              El loco
  E   G   D E        E   G   D E   G   D E   G   D E   G   D
Gb|-------------------------------------------------------------------------------------------------|
Db|-------------------------------------------------------------------------------------------------|
Ab|----------------------------------------------5---------------5---------------5---------------5--|
Eb|-0-------------------------------0---0-3---------0---0-3---------0---0-3---------0---0-3---------|


                             El loco
  E   G   D E   G   D E   G   D E   G   D E5  G   D E5  G   D
Gb|-------------------------------------------------------------------------------------------------|
Db|-------------------------------------------------------------------------------------------------|
Ab|--------------5---------------5---------------5---------------5--7---7-10-----5--7---7-10-----5--|
Eb|-0---0-3---------0---0-3---------0---0-3---------0---0-3-----------------------------------------|


                                              El loco
  E5  G   D E5       E   G   D E   G   D E   G   D E   G   D
Gb|-------------------------------------------------------------------------------------------------|
Db|-------------------------------------------------------------------------------------------------|
Ab|-7---7-10-----5--7---7-10-----5---------------5---------------5---------------5---------------5--|
Eb|---------------------------------0---0-3---------0---0-3---------0---0-3---------0---0-3---------|


ooooooooooooooooooooooooooooooooooooooooooooooooooooooooooooooo
  C                        D        C
Gb|-------------------------------------------------------------------------------------------------|
Db|-------------------------------------------------------------------------------------------------|
Ab|-3---3-3-3-3-3-3-3---3-3-3-3-3-3-3---3-3-3-3-3-3-5---5-5-5-5-5-5-3---3-3-3-3-3-3-3---3-3-3-3-3-3-|
Eb|-------------------------------------------------------------------------------------------------|


             Locura en
  D
Gb|---------------------------------|
Db|---------------------------------|
Ab|-5---5-5-5-5-5-5-5---5-5-5-5-5-5-|
Eb|---------------------------------|


Outro:
  Miiiiiiiiiiiiiiiiiiiiiiiiiiiiiiiiiiiiiiiiiiiiiiiiiiiiiiiiiiiiiiiiii !
  E  G E   G  E  G E   G  E  G E   G  E  G E   G  E  G E   G  E  G E   G
Gb|-------------------------------------------------------------------------------------------------|
Db|-------------------------------------------------------------------------------------------------|
Ab|-------------------------------------------------------------------------------------------------|
Eb|-0---3-0---0-3---0---3-0---0-3---0---3-0---0-3---0---3-0---0-3---0---3-0---0-3---0---3-0---0-3---|


  E  G E   G  E  G E   G  E
Gb|-----------------------------------|
Db|-----------------------------------|
Ab|-----------------------------------|
Eb|-0---3-0---0-3---0---3-0---0-3---0-|


************************************

| \ Slide down
| / Slide up

************************************

Almost there ...

Sign in to get your own page with links to favourite songs and more. You are just one click away...

Login with Facebook Login with Google