Log in

One click and you are in

Login with Facebook Login with Google

Why sign up and log in

Guitar Tabs Explorer
Daisy Driver bass tabs for Blesse mon coeur

Bass tabs with lyrics

  • Difficulty: Intermediate
Tuning: Half-Step Down (Eb Ab Db Gb)


Intro guitar:
  C      G      Bb     F      G#           D#5     D
Gb|-------------------------------------------------------------------------------------------------|
Db|-------------------------------------------------------------------------------------------------|
Ab|-------------------------------------------------------------------------------------------------|
Eb|-------------------------------------------------------------------------------------------------|


Verse 1:
  Oh mon amour danse...
  C      G      Bb     F      G#           D#5     D
Gb|-------------------------------------------------------------------------------------------------|
Db|-------------------------------------------------------------------------------------------------|
Ab|-------------------------------------------------------------------------------------------------|
Eb|-------------------------------------------------------------------------------------------------|


 Laisse aller son âme...
  C      G      Bb     F      G#           D#5     D
Gb|-------------------------------------------------------------------------------------------------|
Db|-------------------------------------------------------------------------------------------------|
Ab|-------------------------------------------------------------------------------------------------|
Eb|---------------------------------------------------------------------------------------------10/-|


Instrumental:
  C      G      Bb     F      G#           D#5     D
Gb|-------------------------------------------------------------------------------------------------|
Db|-------------------------------------------------------------------------------------------------|
Ab|-3---3---3-3-------------------------------------------------------------6--6--6--6--5--5--5--5--|
Eb|-------------3---3---3-3-6---6---6-6-1---1---1-1-4---4---4-4---4-4--4--4-------------------------|


Verse 2:
  Oh mon amour flirte...
  C      G      Bb     F      G#           D#5     D
Gb|-------------------------------------------------------------------------------------------------|
Db|-------------------------------------------------------------------------------------------------|
Ab|-3---3---3-3-------------------------------------------------------------6--6--6--6--5--5--5--5--|
Eb|-------------3---3---3-3-6---6---6-6-1---1---1-1-4---4---4-4---4-4--4--4-------------------------|


 Laisse filer ces instants...
  C      G      Bb     F      G#           D#5     D
Gb|-------------------------------------------------------------------------------------------------|
Db|-------------------------------------------------------------------------------------------------|
Ab|-3---3---3-3-------------------------------------------------------------6--6--6--6--5--5--5--5--|
Eb|-------------3---3---3-3-6---6---6-6-1---1---1-1-4---4---4-4---4-4--4--4-------------------------|


Chorus:
    Je plonge dans tes yeux...           Je flotte dans tes rèves...
  G#           F            G#           F
Gb|-------------------------------------------------------------------------------------------------|
Db|-------------------------------------------------------------------------------------------------|
Ab|-------------------------------------------------------------------------------------------------|
Eb|-4---4---4-4---4-4--4--4-1---1---1-1---1-1--1--1-4---4---4-4---4-4--4--4-1---1---1-1---1-1--1--1-|


     Le cri de ta colère blesse mon
  G#           F
Gb|-------------------------------------------------|
Db|-------------------------------------------------|
Ab|-------------------------------------------------|
Eb|-4---4---4-4---4-4--4--4-1---1---1-1---1-1--1--1-|


  coeuuuuuuuuuuur                                   Blesse mon
  C      G      Bb     F      G#           D#5     D
Gb|-------------------------------------------------------------------------------------------------|
Db|-------------------------------------------------------------------------------------------------|
Ab|-3---3---3-3-------------------------------------------------------------6--6--6--6--5--5--5--5--|
Eb|-------------3---3---3-3-6---6---6-6-1---1---1-1-4---4---4-4---4-4--4--4------------------------|


  coeuuuuuuuuuuur
  C      G      Bb     F      G#           D#5     D
Gb|-------------------------------------------------------------------------------------------------|
Db|-------------------------------------------------------------------------------------------------|
Ab|-3---3---3-3-------------------------------------------------------------6--6--6--6--5--5--5--5--|
Eb|-------------3---3---3-3-6---6---6-6-1---1---1-1-4---4---4-4---4-4--4--4-------------------------|


Verse 3:
  Oh mon amour cherche...
  C      G      Bb     F      G#           D#5     D
Gb|-------------------------------------------------------------------------------------------------|
Db|-------------------------------------------------------------------------------------------------|
Ab|-3---3---3-3-------------------------------------------------------------6--6--6--6--5--5--5--5--|
Eb|-------------3---3---3-3-6---6---6-6-1---1---1-1-4---4---4-4---4-4--4--4-------------------------|


  Laisse couler ses larmes...
  C      G      Bb     F      G#           D#5     D
Gb|-------------------------------------------------------------------------------------------------|
Db|-------------------------------------------------------------------------------------------------|
Ab|-3---3---3-3-------------------------------------------------------------6--6--6--6--5--5--5--5--|
Eb|-------------3---3---3-3-6---6---6-6-1---1---1-1-4---4---4-4---4-4--4--4-------------------------|


Chorus:
    Je plonge dans les cieux...          Je flotte dans les airs...
  G#           F            G#           F
Gb|-------------------------------------------------------------------------------------------------|
Db|-------------------------------------------------------------------------------------------------|
Ab|-------------------------------------------------------------------------------------------------|
Eb|-4---4---4-4---4-4--4--4-1---1---1-1---1-1--1--1-4---4---4-4---4-4--4--4-1---1---1-1---1-1--1--1-|


    Ta flamme et ta lumière blessent mon
  G#           F
Gb|-------------------------------------------------|
Db|-------------------------------------------------|
Ab|-------------------------------------------------|
Eb|-4---4---4-4---4-4--4--4-1---1---1-1---1-1--1--1-|


  coeuuuuuuuuuuur                                   Blesse mon
  C      G      Bb     F      G#           D#5     D
Gb|-------------------------------------------------------------------------------------------------|
Db|-------------------------------------------------------------------------------------------------|
Ab|-3---3---3-3-------------------------------------------------------------6--6--6--6--5--5--5--5--|
Eb|-------------3---3---3-3-6---6---6-6-1---1---1-1-4---4---4-4---4-4--4--4-------------------------|


  coeuuuuuuuuuuur
  C      G      Bb     F      G#           Bb
Gb|-------------------------------------------------------------------------------------------------|
Db|-------------------------------------------------------------------------------------------------|
Ab|-3---3---3-3-------------------------------------------------------------------------------------|
Eb|-------------3---3---3-3-6---6---6-6-1---1---1-1-4---4---4-4---4-4--4--4-6--6--6--6--6--6--6--6--|


Bridge:                                     (Murmur) Blesse mon
  C            D            D#           Bb
Gb|-------------------------------------------------------------------------------------------------|
Db|-------------------------------------------------------------------------------------------------|
Ab|-3--3--3--3--3--3--3--3--5--5--5--5--5--5--5--5--6--6--6--6--6--6--6--6--1--1--1--1--1--1--1--1--|
Eb|-------------------------------------------------------------------------------------------------|


  coeuuuuuuuuuuur                               (Murmur)Blesse mon
  C            D            D#           Bb
Gb|-------------------------------------------------------------------------------------------------|
Db|-------------------------------------------------------------------------------------------------|
Ab|-3--3--3--3--3--3--3--3--5--5--5--5--5--5--5--5--6--6--6--6--6--6--6--6--1--1--1--1--1--1--1--1--|
Eb|-------------------------------------------------------------------------------------------------|


  coeuuuuuuuuuuur                               (Murmur)Blesse mon
  C            D            D#           Bb
Gb|-------------------------------------------------------------------------------------------------|
Db|-------------------5-----------------------3-----------------------5-----------------------3-----|
Ab|-3--3--3--3--3--3-----3--5--5--5--5--5--5-----5--6--6--6--6--6--6-----6--1--1--1--1--1--1-----1--|
Eb|-------------------------------------------------------------------------------------------------|


  coeuuuuuuuuuuur                              (Screaming)Blesse mon
  C            D            D#           Bb
Gb|-------------------3--5--------------------3--5--------------------3--5--------------------------|
Db|-------5-----3-----------------5-----3-----------------5-----3-----------------------------------|
Ab|-3--3-----3-----3--------5--5-----5-----5--------6--6-----6-----6--------1--1--1--1--1--1--1--1--|
Eb|-------------------------------------------------------------------------------------------------|


Chorus:
    Je plonge dans les cieux...          Je flotte dans les airs...
  G#           F            G#           F
Gb|-------------------------------------------------------------------------------------------------|
Db|-------------------------------------------------------------------------------------------------|
Ab|-------------------------------------------------------------------------------------------------|
Eb|-4---4---4-4---4-4--4--4-1---1---1-1---1-1--1--1-4---4---4-4---4-4--4--4-1---1---1-1---1-1--1--1-|


    Ta flamme et ta lumière blessent mon
  G#           F
Gb|-------------------------------------------------|
Db|-------------------------------------------------|
Ab|-------------------------------------------------|
Eb|-4---4---4-4---4-4--4--4-1---1---1-1---1-1--1--1-|


  coeuuuuuuuuuuur                                   Blesse mon
  C      G      Bb     F      G#           D#5     D
Gb|-------------------------------------------------------------------------------------------------|
Db|-------------------------------------------------------------------------------------------------|
Ab|-3---3---3-3-------------------------------------------------------------6--6--6--6--5--5--5--5--|
Eb|-------------3---3---3-3-6---6---6-6-1---1---1-1-4---4---4-4---4-4--4--4------------------------|


  coeuuuuuuuuuuur                                   Blesse mon
  C      G      Bb     F      G#           D#5     D
Gb|-------------------------------------------------------------------------------------------------|
Db|-------------------------------------------------------------------------------------------------|
Ab|-3---3---3-3-------------------------------------------------------------6--6--6--6--5--5--5--5--|
Eb|-------------3---3---3-3-6---6---6-6-1---1---1-1-4---4---4-4---4-4--4--4-------------------------|


Outro:
  coeuuuur
  C
Gb|-------------------------------------------------------------------------------------------------|
Db|-------------------------------------------------------------------------------------------------|
Ab|-3-----------------------------------------------------------------------------------------------|
Eb|-------------------------------------------------------------------------------------------------|


************************************

| \ Slide down
| / Slide up

************************************

Almost there ...

Sign in to get your own page with links to favourite songs and more. You are just one click away...

Login with Facebook Login with Google