Log in

One click and you are in

Login with Facebook Login with Google

Why sign up and log in

Guitar Tabs Explorer
Daft Punk bass tabs for Human after all

Bass tabs

Human After All - Daft Punk
-----------------------------------------------------------------------------

Tabbed By : Keith D Pearson
e-mail: Keith.pearson@umit.maine.edu
The bass line for guitar one is not necessary, and is not necessary to play on a bass.
However it can be played on a five string bass with standard tuning. The bass line for
guitar two can be played on a four string in standard tuning.

Guitar #1 (There are lots of small variations that you could add in to make it sound
more like the song. Likewise the part in parenthesis "(2222)" isn't played every time)

G---------------|---------------|---------------|---------------|
D---------------|---------------|---------------|---------------|
A-2-2-----2-2---|-2-2-----2-2(2222)-------------|---------------|
E---------------|---------------|---------------|---------------|
B---------------|---------------|-3-3-----3-3---|-3-3-----3-3---|
 1 a 2 a 3 a 4 a 1 a 2 a 3 a 4 a 1 a 2 a 3 a 4 a 1 a 2 a 3 a 4 a

G---------------|---------------|---------------|---------------|
D---------------|---------------|---------------|---------------|
A---------------|---------------|---------------|---------------|
E---------------|---------------|-3-3-----3-3---|-5-5-----5-5---|
B-5-5-----5-5---|-5-5-----5-5---|---------------|---------------|
 1 a 2 a 3 a 4 a 1 a 2 a 3 a 4 a 1 a 2 a 3 a 4 a 1 a 2 a 3 a 4 a


Guitar #2 (Starts in at the last bar of guitar # 1's line)

First riff
G---------------|-9-11 9---------|---------------|-7-9- 7---------|
D-------------9-11---- ----------|-------------7-9----- ----------|
A---------9-11--|----- ----------|-----------9---|----- ----------|
E---------------|----- ----------|---------------|----- ----------|
 1 a 2 a 3 a 4 a 1 a 2 a 3 a 4 a 1 a 2 a 3 a 4 a 1 a 2 a 3 a 4 a

G---------------|-9-11 12--------|-----------------9-11 9---------|
D-------------9-11---- ----------|-------------9-11---- ----------|
A---------9-11--|----- ----------|-----------11--|----- ----------|
E---------------|----- ----------|---------------|----- ----------|
 1 a 2 a 3 a 4 a 1 a 2 a 3 a 4 a 1 a 2 a 3 a 4 a 1 a 2 a 3 a 4 a

Second riff
G---------------|---------------|---------------|---------------|
D---------------|-2-4-2---------|---------------|-0-2-0---------|
A-------------2-4---------------|-------------0-2---------------|
E---------2-4---|---------------|-----------2---|---------------|
 1 a 2 a 3 a 4 a 1 a 2 a 3 a 4 a 1 a 2 a 3 a 4 a 1 a 2 a 3 a 4 a

G---------------|---------------|---------------|---------------|
D---------------|-2-4-5---------|-----------------2-4-2---------|
A-------------2-4---------------|-------------2-4---------------|
E---------2-4---|---------------|-----------4---|---------------|

Almost there ...

Sign in to get your own page with links to favourite songs and more. You are just one click away...

Login with Facebook Login with Google