Log in

One click and you are in

Login with Facebook Login with Google

Why sign up and log in

Guitar Tabs Explorer
Daft Punk tabs for Digital love

Solo tabs

this proved to be a difficult tab to do, if there are any alterations needed tell me.

obviously advanced - expert needed to be able to play:

4/4

e ||----------------|----------------|----------------|----------------|
A chord diagramBB ||----------------|----------------|------------17b-|---17=----------|
A chord diagramG+G ||----------------|-------s16p14=--|----------------|----------------|
A chord diagramD MajorD ||--------s16p14=-|----------------|----------16----|----------------|
A chord diagramA augmentedA ||--12=-----------|----------------|----------------|----------------|
A chord diagramE MajorE ||----------------|----------------|----------------|----------------|
|--17-16-17-14-17--17--17--17---17---|
|----------------17--15--14----------|
|-----------------------------16--14=|
|------------------------------------|
|------------------------------------|
|------------------------------------|


|---------------------------------------------16-19-21-22b--|
|-------------------------15-17-19-17-19-21-22--------------|
|--16-18-16-18-19-18-19-21----------------------------------|
|-----------------------------------------------------------|
|-----------------------------------------------------------|
|-----------------------------------------------------------|


|-----------------------------------|
|-----------------------------------|
|-------------------------9b--------|
|--s19--7h9h11-7h9h11-7h9------12=--|
|-----------------------------------|
|-----------------------------------|

|------------------------------------|
|--10b------10b-10b-10b-10b-10b-10b--|
|------------------------------------|
|------------------------------------|
|------------------------------------|
|------------------------------------|


|-----------------------7b---------7b--5p2-5p2-s19--19b--17-|
|--5h7h10-5h7h10-5h7h10-------------------------------------|
|-----------------------------------------------------------|
|-----------------------------------------------------------|
|-----------------------------------------------------------|
|-----------------------------------------------------------|


|------------------------------------------|
|------------------------------------------|
|------------------------------------------|
|------------------------------------------|
|--9s--0-2h4--7-9--7------0--0-------------|
|---------------------0-2------7-5-2--5p2--|


|-------------------------------------------|
|-------------------------------------------|
|------------------------------------2h4h6--|
|-------------------------------4h6h7-------|
|--------------------------5h7h9------------|
|--2h4h5-4h5h7-5h7h9-7h9h10-----------------|


|----------------------------------------------------|
|------------------------------9h10h12-10h12h14h15b--|
|--6p4h6h7-6h7h9-7h9h11p9h11h13----------------------|
|----------------------------------------------------|
|----------------------------------------------------|
|----------------------------------------------------|


|--12-0-5-7-0-5--7-0-5-9-0-7--7-0-5-9-0-7--7-0-5-9-0-7--|
|-------------------------------------------------------|
|-------------------------------------------------------|
|-------------------------------------------------------|
|-------------------------------------------------------|
|-------------------------------------------------------|


|--7-0-5-9-0-7--7-0-5-9-0-7--7-0-5-9-0-7-7b--|
|--------------------------------------------|
|--------------------------------------------|
|--------------------------------------------|
|--------------------------------------------|
|--------------------------------------------|


|------------------------------------------------------------------||
|------------------------------------------------------------------||
|-------7---7---9b--9=-------7--7--6--9b--9--6-----4-6-7-6-4-------||
|--7--9---9---9--------------------------------9-7-----------7--7=-||
|------------------------------------------------------------------||
|------------------------------------------------------------------||


Key:

=     let note ring
b     bend from note to note
s     slide from note to note
h     hammer on
p     pull off


guitarpr0o0 - aka nathaniel.

Other versions of Digital Love

Digital loveChords

Almost there ...

Sign in to get your own page with links to favourite songs and more. You are just one click away...

Login with Facebook Login with Google