Log in

One click and you are in

Login with Facebook Login with Google

Why sign up and log in

Guitar Tabs Explorer
Daði Freyr bass tabs for Think about things

Bass tabs

Tuning: Standard (E A D G)

Tab by C.Martinez
Takk Fyrir Daði Freyr!
Intro - 00:20:

G|---------------------------------------------------------------------------|
D|---------------------------------------------------------------------------|
A|-----4-4--6----------------------------------------------------------------|
E|---4-----------------------------------------------------------------------|

G|---------------------------------------------------------------------------|
D|---------------------------------------------------------------------------|
A|---6--4-----------4-4--6---------------------------------------------------|
E|---------7--7-6-4----------------------------------------------------------|


Verse 1 - 00:31:

 |-----P-------P--------P-----------P-------P-------P--------P------------PP-|

G|-----8----------------------------8-------8-----------------------------8-8|
D|-------------9--------6---------------------------9--------6---------------|x2
A|-5h6---4-----------------4--4-6--6-----5h6---4-----------------4--4-6--6---|
E|----------6h7--7-6-3h4-------------------------6h7--7-6-3h4----------------|



Chorus 1:01:

 |----P---------------------P---------------P--P-----------------------------|

G|----8---------------------4---------------6--------------------------------|
D|---------------------------------------------8-----------------------------|x2
A|-4/6--6---4-5-6-----1-2--2-2----4---1-1--4---------------------------------|
E|--------6-------6-2-----------2--2----------6------------------------------|

ending 2nd time - 1:16
 |---P---P-------------------------------------------------------------------|

G|---6---7-------------------------------------------------------------------|
D|---------------------------------------------------------------------------|
A|3/4---5--------------------------------------------------------------------|
E|---------------------------------------------------------------------------|


Post-Chorus - 1:18:

 |-----P-------P--------P-----------P-------P-------P--------P------------PP-|

G|-----8----------------------------8-------8-----------------------------8-8|
D|-------------9--------6---------------------------9--------6---------------|
A|-5h6---4-----------------4--4-6--6-----5h6---4-----------------4--4-6--6---|
E|----------6h7--7-6-3h4-------------------------6h7--7-6-3h4----------------|


Verse 2 - 1:33:

 |-----P-------P--------P-----------P-------P-------P--------P------------PP-|

G|-----8----------------------------8-------8-----------------------------8-8|
D|-------------9--------6---------------------------9--------6---------------|
A|-5h6---4-----------------4--4-6--6-----5h6---4-----------------4--4-6--6---|
E|----------6h7--7-6-3h4-------------------------6h7--7-6-3h4----------------|


Bridge - 1:48:


G|---------------------------------------------------------------------------|
D|---------------------------------------------------------------------------|
A|-6~--4----------4-4-6------6~--4----------4-4-6----------------------------|
E|-------7~---6-4------------------7~---6-4----------------------------------|


Chorus - 2:04:
Repeat twice, 2nd time ends short on E 4th fret

 |----P---------------------P---------------P--P-----------------------------|

G|----8---------------------4---------------6--------------------------------|
D|---------------------------------------------8-----------------------------|x2
A|-4/6--6---4-5-6-----1-2--2-2----4---1-1--4---------------------------------|
E|--------6-------6-2-----------2--2----------6------------------------------|


Interlude - 2:19:

G|---------------------------------------------------------------------------|
D|---------------------------------------------------------------------------|
A|----------6--------------------1-1-1-1--2-2-2-2----------------------------|
E|-4--4-4-------6---4--4-4----1----------------------------------------------|


Outro - 2:34:

Key Change, chorus up two frets

 |------------P-------------P---------P-------------P-------------P--P--------|

G|------------6-------------8---------10------------6-------------8----------|
D|----------------------------10------------------------------------10-------|
A|-8-----3-4-4-4--6--3-3---6-------6/8---8-----3-4-4-4--6---3-3--6-----------|
E|---8-4---------4-6----------8------------8-4---------4--6---------8--------|


Ending notes
G|---------------------------------------------------------------------------|
D|---------------------------------------------------------------------------|
A|---5/6-7-8-----------------------------------------------------------------|
E|---------------------------------------------------------------------------|


************************************

| h  Hammer-on
| /  Slide up
| ~  Vibrato

************************************

Almost there ...

Sign in to get your own page with links to favourite songs and more. You are just one click away...

Login with Facebook Login with Google