Log in

One click and you are in

Login with Facebook Login with Google

Why sign up and log in

Guitar Tabs Explorer
Daði Freyr bass tabs for Skiptir ekki máli

Bass tabs

  • Difficulty: Intermediate
Tuning: Standard (E A D G)

♫ Intro: - 00:00:
G|---------------------------------------------------------------------------|
D|---------------------------------------------------------------------------|
A|---------------------------------------------------------------------------|
E|---------------------------------------------------------------------------|
              00:13:
G|---------------------------------------------------------------------------|
D|--------------------------------8-------------5-5--------------------------|
A|---------------------------------------------------------------------------|
E|------------------------------6---8-7-6--8\--3-----3-4-5-/8----------------|

G|--7------------------------------------------------------------------------|
D|-----------------7-7----7--10---8-------------5-5--------------------------|
A|5---0--3-4-5---------------------------------------------------------------|
E|-------------3--5------5--8---6---8-7-6--8\--3-----3-4-5-/8----------------|

G|--7------------------------------------------------------------------------|
D|-----------------7-7----7--10---8-------------5-5--------------------------|
A|5---0--3-4-5---------------------------------------------------------------|
E|-------------3--5------5--8---6---8-7-6--8\--3-----3-4-5-/8----------------|

♫ Verse 1:- 00:34:

G|--7------------------------------------------------------------------------|
D|-----------------7-7----7--10---8-------------5-5--------------------------|
A|5---0--3-4-5---------------------------------------------------------------|
E|-------------3--5------5--8---6---8-7-6--8\--3-----3-4-5-/8----------------|

G|--7------------------------------------------------------------------------|
D|-----------------7-7----7--10---8-------------5-5--------------------------|
A|5---0--3-4-5---------------------------------------------------------------|
E|-------------3--5------5--8---6---8-7-6--8\--3-----3-4-5-/8----------------|

G|--7------------------------------------------------------------------------|
D|-----------------7-7----7--10---8-------------5-5--------------------------|
A|5---0--3-4-5---------------------------------------------------------------|
E|-------------3--5------5--8---6---8-7-6--8\--3-----3-4-5-/8----------------|

G|--7------------------------------------------------------------------------|
D|-----------------7-7----7--10---8-------------5-5--------------------------|
A|5---0--3-4-5---------------------------------------------------------------|
E|-------------3--5------5--8---6---8-7-6--8\--3-----3-4-5-/8----------------|

♫ Bridge: - 1:09:

G|---------------------------------------------------------------------------|
D|---------------------------------------------------------------------------|
A|------------------------------5--5--5--5-5---------------------------------|
E|-3--3--3--3--3-3--3--3-3--3-5-------------5--5--5-5--5--5------------------|

G|---------------------------------------------------------------------------|
D|---------------------------------------------------------------------------|
A|------------------------------5--5--5--5-5---------------------------------|
E|-3--3--3--3--3-3--3--3-3--3-5-------------5--5--5-5--5--5------------------|

♫ Chorus: - 1:27:

G|--7------------------------------------------------------------------------|
D|-----------------7-7----7--10---8-------------5-5--------------------------|
A|5---0--3-4-5---------------------------------------------------------------|
E|-------------3--5------5--8---6---8-7-6--8\--3-----3-4-5-/8----------------|

G|--7------------------------------------------------------------------------|
D|-----------------7-7----7--10---8-------------5-5--------------------------|
A|5---0--3-4-5---------------------------------------------------------------|
E|-------------3--5------5--8---6---8-7-6--8\--3-----3-4-5-/8----------------|

♫ Verse 2: - 1:44:

G|--7------------------------------------------------------------------------|
D|-----------------7-7----7--10---8-------------5-5--------------------------|
A|5---0--3-4-5---------------------------------------------------------------|
E|-------------3--5------5--8---6---8-7-6--8\--3-----3-4-5-/8----------------|

G|--7------------------------------------------------------------------------|
D|-----------------7-7----7--10---8-------------5-5--------------------------|
A|5---0--3-4-5---------------------------------------------------------------|
E|-------------3--5------5--8---6---8-7-6--8\--3-----3-4-5-/8----------------|

♫ Bridge 2:

G|--7-----------7-----------7------------------------------------------------|
D|---------------------------------------------------------------------------|
A|5---0--3-4-5----0--3-4-5---0--3-4-5----------------------------------------|
E|-------------------------------------3-------------------------------------|

Chorus: - 2:06:

G|--7------------------------------------------------------------------------|
D|-----------------7-7----7--10---8-------------5-5--------------------------|
A|5---0--3-4-5---------------------------------------------------------------|
E|-------------3--5------5--8---6---8-7-6--8\--3-----3-4-5-/8----------------|

G|--7------------------------------------------------------------------------|
D|-----------------7-7----7--10---8-------------5-5--------------------------|
A|5---0--3-4-5---------------------------------------------------------------|
E|-------------3--5------5--8---6---8-7-6--8\--3-----3-4-5-/8----------------|

♫ Bridge: - 2:24:

G|---------------------------------------------------------------------------|
D|---------------------------------------------------------------------------|
A|------------------------------5--5--5--5-5---------------------------------|
E|-3--3--3--3--3-3--3--3-3--3-5-------------5--5--5-5--5--5------------------|

G|---------------------------------------------------------------------------|
D|---------------------------------------------------------------------------|
A|------------------------------5--5--5--5-5---------------------------------|
E|-3--3--3--3--3-3--3--3-3--3-5-------------5--5--5-5--5--5------------------|


♫ Solo: - 2:41:

G|--7------------------------------------------------------------------------|
D|-----------------7-7----7--10---8-------------5-5--------------------------|
A|5---0--3-4-5---------------------------------------------------------------|
E|-------------3--5------5--8---6---8-7-6--8\--3-----3-4-5-/8----------------|

G|--7------------------------------------------------------------------------|
D|-----------------7-7----7--10---8-------------5-5--------------------------|
A|5---0--3-4-5---------------------------------------------------------------|
E|-------------3--5------5--8---6---8-7-6--8\--3-----3-4-5-/8----------------|


Final ♫ Chorus: - 2:59:

G|--7------------------------------------------------------------------------|
D|-----------------7-7----7--10---8-------------5-5--------------------------|
A|5---0--3-4-5---------------------------------------------------------------|
E|-------------3--5------5--8---6---8-7-6--8\--3-----3-4-5-/8----------------|

G|--7------------------------------------------------------------------------|
D|-----------------7-7----7--10---8-------------5-5--------------------------|
A|5---0--3-4-5---------------------------------------------------------------|
E|-------------3--5------5--8---6---8-7-6--8\--3-----3-4-5-/8----------------|


************************************

| /  Slide up
| \  Slide down

************************************
ⓘ Bass guitar tab for 'Skiptir Ekki Máli' by Daði Freyr, a pop artist. Daði Freyr was born in 1992.

Almost there ...

Sign in to get your own page with links to favourite songs and more. You are just one click away...

Login with Facebook Login with Google