Log in

One click and you are in

Login with Facebook Login with Google

Why sign up and log in

Guitar Tabs Explorer
Dada tabs for Dizz knee land

Guitar tabs with lyrics

Dizz Knee Land
--------------

by dada   From the album "Puzzle"

transcribed by Jeff Matson (jdm7@cornell.edu)

 okay, here is where i put a little disclaimer.  this is not really
 a complete version.  i started working on this a while ago, and i
 gave up and moved on to other things before i had finished.  after reading
 at least two and maybe three requests for this particular dada song, i
 figured i would post what i had, anyway.  if i ever get around to cleaning
 this up i'll send it in to nevada.  for now, this should be enough to get
 people started, anyway.

 --jeff

Capo first fret.

 Main Riff

 e ------------------------------------------------------------------------
 A chord diagramBB -9/10-10-10-10-12-10-10-10-8-8-8-8-8-7-5-3--1h3-3-3-3-3-3---------------
 A chord diagramG+G -----------------------------------------------------------2h4-4-4-4-4--

 e --------
 A chord diagramBB --------
 A chord diagramG+G -2-0-2--

 There are no real verse chords, but you can fake it with
     A chord diagramD MajorD         A chord diagramG+G
   557775    355433


 Bridge:

    A chord diagramG+G         A chord diagramFF
  355433    133211

i couldn't figure out the weird bendy part with the guitar that comes after
the bridge.  it may be a A chord diagramG+G with some weird effects.

The following is TAB to the middle part of Dizz Knee Land by
dada.  There are really two guitars playing so this is adapted
for one guitar.  If anyone has any corrections please post them.


Dizz Knee Land - dada        (Middle funky part after verse 2)

                                           tabbed by Dave Singer


-3-3-3-3-3--3--3--3--3---1-1-1-1-1--1--1--1--1-------------------
-3-3-3-3-2--2--3--2--2---1-1-1-1-0--0--1--0--0-------------------
-2-2-2-2-2--2--2--2--2---0-0-0-0-0--0--0--0--0-------------------
-2-2-2-2-2--2--2--2--2---0-0-0-0-0--0--0--0--0-------------------
-----------------------------------------------------------------
-----------------------------------------------------------------

-3-3-3-3-3--3--3--3--3---1-1-1-1-1--1--1--1--1-------------------
-3-3-3-3-2--2--3--2--2---1-1-1-1-0--0--1--0--0-------------------
-2-2-2-2-2--2--2--2--2---0-0-0-0-0--0--0--0--0-------------------
-2-2-2-2-2--2--2--2--2---0-0-0-0-0--0--0--0--0-------------------
-----------------------------------------------------------------
-----------------------------------------------------------------


--0----3-3--2-2--------------------------------------------------
--1----3-3--3-3--------------------------------------------------
--2----4-4--2-2--------------------------------------------------
--3----5-5--0-0------------3--5--3--0----------------------------
--3---------------0--3--5----------------------------------------
---------------------------------------3--2----------------------


--0----3-3--2-2--------------------------------------------------
--1----3-3--3-3--------------------------------------------------
--2----4-4--2-2------------------2-------------------------------
--3----5-5--0-0------------3--5--3--------4----------------------
--3---------------0--3--5-----------0--3--5----------------------
-----------------------------------------------------------------


--0----3-3--2-2--------------------------------------------------
--1----3-3--3-3--------------------------------------------------
--2----4-4--2-2--------------------------------------------------
--3----5-5--0-0------------3--5--3--0----------------------------
--3---------------0--3--5-------------------------4--2--0--------
---------------------------------------3--2--1----5--3--2--------



Here is some dada with sme new corrections and updates
                 Dizz Knee Land / DaDa
                      From the album "Puzzle"
This song is NOT in Pitch on the record;listening to the open strings
it's in A chord diagramD MajorD
Alterations made to previous Dada postings:please credit original posters

Credt to Jeff Matson (jdm7@cornell.edu) Suggests to Capo first fret
Credt to Dave Singer (dmsinge@erenj.com) Song is in  A chord diagramD MajorD most chords are A chord diagramD MajorD
and G.


Intro Riff 3X
--------------------------------------------------------------------------
---------------------------------------------15--15--15--15---------------
12/14--14--14--14h16--14--14--14--14--11h12--12--12--12--12--12--11--9--7-
-0--0---0---0---0--0---0---0---0---0--0--0---0---0---0---0---0---0---0--0-
--------------------------------------------------------------------------
--------------------------------------------------------------------------
                                              ^ (15) not played for  intro
-----------------------------------------------------------------
-----------------------------------------------------------------
5h7---7---7---7---7--7--7--7---2/4---4---4---4---4---4---2--0--2-
0-0---0---0---0---0--0--0--0---0-0---0---0---0---0---0---0--0--0-
-----------------------------------------------------------------
-----------------------------------------------------------------


Verse 1
A chord diagramD MajorD
I just ran away from home ...(riff)
A chord diagramD MajorD
I just crashed my car again  ....(riff)
A chord diagramD MajorD                                A chord diagramG+G
I just robbed a grocery store   ....(riff)
A chord diagramD MajorD                                A chord diagramG+G
I just flipped off President ....(riff)


Bridge 1 Chord shapes Approx strum
A chord diagramA7sus4A7sus4   A chord diagramA augmentedA   A chord diagramA7sus4A7sus4  A chord diagramA augmentedA       A chord diagramG7sus4G7sus4 A chord diagramG+G     A chord diagramG7sus4G7sus4  A chord diagramG+G A chord diagramG+G         2X
 d u d   d   u u    u d    . d u d  d...   u u  u.d..
-5-5-5---5---5-5----5-5------3-3-3--3------3-3--3-3-------
-5-5-5---5---5-5----5-5------3-3-3--3------3-3--3-3-------
-7-7-7---6---7-7----6-6------5-5-5--4------5-5--4-4-------
-5-5-5---7---5-5----5h7------3-3-3--5------3-3--5-5-------
-7-7-7---7---7-7----7-7------5-5-5--5------5-5--5-5-------
-5-5-5---5---5-5----5-5------3-3-3--3------3-3--3-3-------


Intro riff 1X


Verse 2
A chord diagramD MajorD
I just tossed a fith of gin   now  ...(riff)
A chord diagramD MajorD
I just got cuffed again            ...(riff)
A chord diagramD MajorD                              A chord diagramG+G
Shot my gun into the night    now  ...(riff)
A chord diagramD MajorD                              A chord diagramG+G                            oh
I just saw a good man die     now  ....(riff)
                                                            come on

Bridge 2

A chord diagramA7sus4A7sus4   A chord diagramA augmentedA   A chord diagramA7sus4A7sus4  A chord diagramA augmentedA       A chord diagramG7sus4G7sus4 A chord diagramG+G     A chord diagramG7sus4G7sus4  A chord diagramG+G A chord diagramG+G         2X
 d u d   d   u u    u d    . d u d  d...   u u  u.d..
-5-5-5---5---5-5----5-5------3-3-3--3------3-3--3-3-------
-5-5-5---5---5-5----5-5------3-3-3--3------3-3--3-3-------
-7-7-7---6---7-7----6-6------5-5-5--4------5-5--4-4-------
-5-5-5---7---5-5----5h7------3-3-3--5------3-3--5-5-------
-7-7-7---7---7-7----7-7------5-5-5--5------5-5--5-5-------
-5-5-5---5---5-5----5-5------3-3-3--3------3-3--3-3-------


Intro riff 1X

Then to bridge Chords Fmaj7.  A chord diagramG+G A chord diagramG+G     D.
Sustain
A chord diagramFmaj7Fmaj7     A chord diagramG+G  A chord diagramG+G   A chord diagramD MajorD     Approx>
--0-------3--3---2------------------------------
--1-------0--0---3------------------------------
--2-------0--0---2-----------------0-----------
--3-------0--0---0------------0--3---3-0----------
----------2--2-----------0--3--------------------
----------3--3----------------------------3--2------
2nd
A chord diagramFmaj7Fmaj7     A chord diagramG+G  A chord diagramG+G   A chord diagramD MajorD
--0-------3--3---2---------------------------------
--1-------0--0---3---------------------------------
--2-------0--0---2-----------------0-2-------------
--3-------0--0---0------------0--3---3-0------0----
----------2--2-----------0--3------------0--3------
----------3--3-------------------------------------
3rd
A chord diagramFmaj7Fmaj7     A chord diagramG+G  A chord diagramG+G   A chord diagramD MajorD
--0-------3--3---2---------------------------------
--1-------0--0---3---------------------------------
--2-------0--0---2-----------------0---------------
--3-------0--0---0------------0--3---3-0-----------
----------2--2-----------0--3-----------------------
----------3--3----------------------------3--2--1----
4th time
A chord diagramFmaj7Fmaj7           A chord diagramD MajorD       to Verse 3
--0--------------------------------2-----
--1--------------------------------3-----
--2--------------------------------2-----
--3--------------------------------0-----
-----------------4--2-0------------------
-------------1---5--3-2------------------

Intro rif 1x


Verse 3 Quiet one

Kicked my Ass out of ...


Intro riff 2x


Lead Help (Chords A chord diagramD MajorD & A chord diagramG+G)! Starts off of A chord diagramD MajorD chord 10th position

one identifiable part goes something like:

-10-10-10-10-10-10-10-10-10-10----13-13-13-13-13-13----------
-7---7--7--7--7-7---7--7--7--7----10-10-10-10-10-10----------
------------------------------------------------------------
------------------------------------------------------------
-------------------------------------------------------------
-------------------------------------------------------------

Almost there ...

Sign in to get your own page with links to favourite songs and more. You are just one click away...

Login with Facebook Login with Google