Log in

One click and you are in

Login with Facebook Login with Google

Why sign up and log in

Guitar Tabs Explorer
Dada tabs for Dim

Guitar tabs with lyrics

id AA01961; Mon, 14 Feb 94 15:55:17 EST
	id AA05254; Mon, 14 Feb 94 15:48:13 EST
Reply-To: ryan@odouls.stx.com (patrick m. ryan)

Pat Ryan said:
>From news.gsfc.nasa.gov!news.gsfc.nasa.gov!odouls!ryan Mon Feb 14 09:58:16 1994
Reply-To: ryan@odouls.stx.com (patrick m. ryan)
NNTP-Posting-Host: odouls.stx.com
X-Newsreader: TIN [version 1.2 PL2]
	Here is a mostly complete transcription of Dada's tune, "Dim".


-----------------------------------
Dada, "Dim"
	from the album, _Puzzle_

	transcription by ryan@odouls.stx.com (patrick m. ryan)
	comments, corrections, cash donations welcome


[intro riff]
----0-2-3-2-0-----0-2-3-2-0------0---0--------------
--3------------3------------3-----------------------
------------------------------/4---2---0------------
----------------------------------------------------
----------------------------------------------------
----------------------------------------------------


[intro riff played once with just guitar then
 twice along with drums & bass]

[cool verse riff]
                             ~~~~~~
-----------------------------------
-----------------------------0-----
----0---0----------------0---------
-------------4---4---------2-------
-----------0---0------3------------
--3---3-------------3--------------

[verse riff played 2x with no vocals
 then verse riff played over each line (4x)]


[verse 1]
If you've got pictures of your ...


[chorus]
A chord diagramG+G             A chord diagramD MajorD             A chord diagramC majorC              A chord diagramC majorC
                           Before my life, before ...

A chord diagramG+G             A chord diagramD MajorD             A chord diagramC majorC              A chord diagramC majorC
                           Before my life, before ...

A chord diagramE minorEm            A chord diagramD MajorD             A chord diagramC majorC              A chord diagramC majorC
       No one told me the ...

A chord diagramG+G             A chord diagramD MajorD             A chord diagramC majorC              A chord diagramC majorC
      Before my ...


[intro riff 2x]


[verse 2]
I painted half my face ...


[chorus]
Before my life went ...

[guitar solo
 part 1]

--------------------------7--7--7--7--7--7--7---
-10-10-10--8--8--8--8----10-10-10--8--8--8--8---
--9--9--9--9--9--9--9-----9--9--9--9--9--9--9--- o
------------------------------------------------ o
------------------------------------------------
------------------------------------------------

[guitar solo, part 2 (under construction) ]



[intro riff 2x]


[verse 3]
[rhythm carried by drums & bass.  verse riff not played.]
Can't this car go any faster

[arpeggio fades in under lines 2-4]
------7-------7------
--8-------8-------8--
-7---7---7---7---7---
---------------------
---------------------
---------------------

Can't this car go any ...


[chorus]
Before my life went ...


[intro 4x and end]

--
"Now about those pictures..."
"I can explain!  I was young!  I needed the money!.."

                                                             patrick m. ryan
       nasa / goddard space flight center / hughes stx / eosdis ims v.0 team
   patrick.m.ryan@gsfc.nasa.gov / pryan@ccmail.stx.com / ryan@odouls.stx.com

Almost there ...

Sign in to get your own page with links to favourite songs and more. You are just one click away...

Login with Facebook Login with Google