Log in

One click and you are in

Login with Facebook Login with Google

Why sign up and log in

Guitar Tabs Explorer
Lucy Dacus bass tabs for Body to flame

Bass tabs with lyrics

Tuning: Standard (E A D G)

Bass Begins at 00:27, on "Didn't"


Longing for your short hair to grow back to the way you like
Thank you for the gesture
I regret ever implying that you could be better

G|-------------------------------|-------------------------------|
D|-------------------------------|-------------------------------|
A|-4--1---------2--0--5----------|-4--1---------2--0--5----------|
E|-------3--0-2---------3--2/5---|-------3--0-2---------3--2/5---|
  Didn't mean to empty your perfect body
                  And fill it with my passing whim

G|----------------2---|-----------------|
D|----------0-2-4---4-|-----------------|
A|-5--0-2-4-----------|-2--0-5----------|
E|--------------------|---------3-2-0-2-|
  Easily won, weary of losing
            Gullible girl, weak and alluring, will

G|--------------|-----------|
D|--------------|---0---0---|
A|-4--1---------|-2---------|
E|-------3--0-2-|-----3-----|
  We break our rules, Get drunk in the dark?

G|---------------------------|
D|-2-------------------------|
A|----4--2--1-2-4-2--0-5-----|
E|-----------------------3---|
      Laughing aloud at the spinning stars

G|-----------------------|
D|-----------------------|
A|-0--4--1---------------|
E|----------3--0--2------|

G|---4------------------------|
D|----4-3-3-2-0-0-0-0-0-0-0---|
A|-2--------------------------|
E|----------------------------|

G|-------------------------------------------------|
D|-------------------------------------------------|
A|-5-5-5-5-5-5-5-5-5-4-5-5-2-2-2-4-4-4-5-5-5-5-5-5-|
E|-------------------------------------------------|
  Believe me, I'm speaking
           plainly and
              painfully

G|-----------------------------------------------------------------------|
D|-----------------------------------------------------------------------|
A|-10-10-10-10-10-10--9-9-9-9-9-9--10-10-10-10-10-10-10-10-10--14-12-10--|
E|-----------------------------------------------------------------------|
  Trying to stay
           elegant, eloquent and
                  delicate to you

G|--------------------------------------------------|
D|--------------------------------------------------|
A|-5-5-0-5-5-0-5-5-0-5-5-4-2-2-2-4-4-4-5-5-5-5-5-5--|
E|--------------------------------------------------|
 I see you, holding your breath
         with your arms outstretched

G|----------------------------------|-----------------------|
D|----------------------------------|-----------------------|
A|-10-10\---10-10\---9-9\---9-9\----|-2--4--5--7-7--2--------|
E|--------3--------3------2------2--|------------------0-----|
  Waiting for someone to come
                 rip open your chest

G|---------------------------------|
D|----------2----------------------|
A|-4----1-4----1--2-5-5--5-5--5-5--|
E|---------------------------------|
You take me aside
        to solomnly confide

G|-----------------------------------------------------------|
D|-----------------------------------------------------------|
A|-5-5-5-5-5-5-5-5-5-5-5-5-5-5-5-5-5-5-5-5-5-5-5-5-5-5-------|
E|-----------------------------------------------------------|
  When it comes the time, you plan to give your body to the flame


Outro:

G|-------------------------|
D|-------------------------|
A|-5-5--5-5--5-5--5-5------|
E|---------------------2---|


***********************************
| /  Slide up
| \  Slide down
***********************************

Almost there ...

Sign in to get your own page with links to favourite songs and more. You are just one click away...

Login with Facebook Login with Google