Log in

One click and you are in

Login with Facebook Login with Google

Why sign up and log in

Guitar Tabs Explorer
Daath bass tabs for Day of endless light

Bass tabs with lyrics

DAY OF ENDLESS LIGHT (Bassline)
As recorded by Dååth
(From the 2009 Album THE CONCEALERS)

Transcribed by unregistered
Words and Music by Dååth

Gtr I (C G C F) - 'Picked Bass'

 Q=195
 4/4
 Gtr I
 Wx2     W     +Q  Q Q Q  Q Q  H    H  H
|------------|----------|---------------|-------------|------------|
|------------|----------|---------------|-------------|------------|
|------------|----------|---------------|-------------|------------|
|------------|-0--------|-(0)--7--6--0--|-1--0--13----|-12----8----|


 W     +Q  Q Q Q  Q Q  H    H  H
|----------|---------------|-------------|----------|
|----------|---------------|-------------|----------|
|----------|---------------|-------------|----------|
|-0--------|-(0)--7--6--0--|-1--0--13----|-12----8--|


 W     +Q  Q Q Q  Q Q  H    H  H
|----------|---------------|-------------|----------|
|----------|---------------|-------------|----------|
|----------|---------------|-------------|----------|
|-0--------|-(0)--7--6--0--|-1--0--13----|-12----8--|


 W     +Q  Q Q Q  Q Q  H
|----------|---------------|-------------|
|----------|---------------|-------------|
|----------|---------------|-------------|
|-0--------|-(0)--7--6--0--|-1--0--13----|

  H  H   Q Q  H    H  H
|------------|-------------|-----------|
|------------|-------------|-----------|
|------------|-------------|-----------|
|-12----8----|-1--0--13----|-12----8---|


 E E E E E E E E  E E E E E E E E  E E E E E E E E  E E E E E E E E
|-------------------|---------------------|------------------|-----------------|
|-------------------|---------------------|------------------|-----------------|
|-------------------|---------------------|------------------|-----------------|
|-5-12-0-0-0-0-0-13-|-0-12-0-13-0-12-0-13-|-13-6-0-0-0-0-0-0-|-6-9-0-8-0-6-0-5-|


 E E E E E E E E  E E E E E E E E  E E E E E E E E  E E E E E E E E
|-------------------|---------------------|------------------|-----------------|
|-------------------|---------------------|------------------|-----------------|
|-------------------|---------------------|------------------|-----------------|
|-5-12-0-0-0-0-0-13-|-0-12-0-13-0-12-0-13-|-13-6-0-0-0-0-0-0-|-6-9-0-8-0-6-0-5-|


 E E E E E E E E  E E E E E E E E  E E E E E E E E  E E E E E E E E
|-------------------|---------------------|------------------|-----------------|
|-------------------|---------------------|------------------|-----------------|
|-------------------|---------------------|------------------|-----------------|
|-5-12-0-0-0-0-0-13-|-0-12-0-13-0-12-0-13-|-13-6-0-0-0-0-0-0-|-6-9-0-8-0-6-0-5-|


 E E E E E E E E  E E E E E E E E  E E E E E E E E  E E E E E E E E
|-------------------|---------------------|------------------|-----------------|
|-------------------|---------------------|------------------|-----------------|
|-------------------|---------------------|------------------|-----------------|
|-5-12-0-0-0-0-0-13-|-0-12-0-13-0-12-0-13-|-13-6-0-0-0-0-0-0-|-6-9-0-8-0-6-0-5-|


 Q E E Q E E  Q E E Q Q  Q E E E E E E  E E E E E E E E
|---------------|--------------|----------------|-----------------|
|---------------|--------------|----------------|-----------------|
|-5------5------|-5------6--4--|-5--------5---5-|-------------1-5-|
|----0-0----0-0-|----0-0-------|----0-0-0---0---|-0-0-0-0-1-4-----|


 Q E E Q E E  Q E E Q Q  Q E E E E E E  E E E E E E E E
|---------------|--------------|----------------|-----------------|
|---------------|--------------|----------------|-----------------|
|-5------5------|-5------6--4--|-5--------5---5-|-------------1-5-|
|----0-0----0-0-|----0-0-------|----0-0-0---0---|-0-0-0-0-1-4-----|


 Q Q Q Q  Q Q Q Q  Q Q Q Q  Q Q Q Q
|-------------|-------------|-------------|-------------|
|-------------|-------------|-------------|-------------|
|-5--------5--|----8S=7--5--|-4-----------|-------------|
|----0--0-----|-0-----------|----0--0--1--|-0--0--0--0--|


 Q Q Q Q  Q Q Q Q  Q Q Q Q  +Q  Q Q Q
|-------------|-------------|-------------|---------------|
|-------------|-------------|-------------|---------------|
|-5--------5--|----8S=7--5--|-4-----------|---------------|
|----0--0-----|-0-----------|----0--0--0--|-(0)--0--0--0--|


 Q Q Q Q  Q Q Q Q  Q Q Q Q  Q Q Q Q
|-------------|-------------|-------------|-------------|
|-------------|-------------|-------------|-------------|
|-5--------5--|----8S=7--5--|-4-----------|-------------|
|----0--0-----|-0-----------|----0--0--1--|-0--0--0--0--|


 Q Q Q Q  Q Q Q Q  Q Q Q Q  +Q  Q Q Q
|-------------|-------------|-------------|---------------|
|-------------|-------------|-------------|---------------|
|-5--------5--|----8S=7--5--|-4-----------|---------------|
|----0--0-----|-0-----------|----0--0--0--|-(0)--0--0--0--|


                   6/4
 H  H   H  H   H  H    Q Q E E E E E E E E
|-----------|-----------|-----------||-------------------------|
|-----------|-----------|-----------||-------------------------|
|-----------|-----------|-----------||-------------------------|
|-0----7----|-6----1----|-0----7----||-6--0--0-0-0-0-0-0-0-0---|


 4/4
 H  H   H  H   H  H   Q Q E E E E  E E E E E E E E
|-----------|-----------|-----------|---------------|-----------------|
|-----------|-----------|-----------|---------------|-----------------|
|-----------|-----------|-----------|---------------|-----------------|
|-0----7----|-6----1----|-0----7----|-6--0--0-0-0-0-|-0-0-0-0-0-0-0---|


 E E E E E E E E  E E E E E E E E
|------------------------|---------------------|
|------------------------|---------------------|
|------------------------|---------------------|
|-5-12-12-12-12-12-12-12-|-0-12-0-13-0-12-0-13-|


  E E E E E E E E  E E E E E E E E
|------------------|-----------------|
|------------------|-----------------|
|------------------|-----------------|
|-13-6-6-6-6-6-6-6-|-6-9-0-8-0-6-0-5-|


 E E E E E E E E  E E E E E E E E
|------------------------|---------------------|
|------------------------|---------------------|
|------------------------|---------------------|
|-5-12-12-12-12-12-12-12-|-0-12-0-13-0-12-0-13-|


  E E E E E E E E  E E E E E E E E
|------------------|-----------------|
|------------------|-----------------|
|------------------|-----------------|
|-13-6-6-6-6-6-6-6-|-6-9-0-8-0-6-0-5-|


 E E E E E E E E  E E E E E E E E
|------------------------|---------------------|
|------------------------|---------------------|
|------------------------|---------------------|
|-5-12-12-12-12-12-12-12-|-0-12-0-13-0-12-0-13-|


  E E E E E E E E  E E E E E E E E
|------------------|-----------------|
|------------------|-----------------|
|------------------|-----------------|
|-13-6-6-6-6-6-6-6-|-6-9-0-8-0-6-0-5-|


 E E E E E E E E  E E E E E E E E
|------------------------|---------------------|
|------------------------|---------------------|
|------------------------|---------------------|
|-5-12-12-12-12-12-12-12-|-0-12-0-13-0-12-0-13-|


  E E E E E E E E  E E E E E E E E
|------------------|-----------------|
|------------------|-----------------|
|------------------|-----------------|
|-13-6-6-6-6-6-6-6-|-6-9-0-8-0-6-0-5-|


 Q E E Q E E  Q E E Q Q  Q E E E E E E  E E E E E E E E
|---------------|--------------|----------------|-----------------|
|---------------|--------------|----------------|-----------------|
|-5------5------|-5------6--4--|-5--------5---5-|-------------1-5-|
|----0-0----0-0-|----0-0-------|----0-0-0---0---|-0-0-0-0-1-4-----|


 Q E E Q E E  Q E E Q Q  Q E E E E E E  E E E E E E E E
|---------------|--------------|----------------|-----------------|
|---------------|--------------|----------------|-----------------|
|-5------5------|-5------6--4--|-5--------5---5-|-------------1-5-|
|----0-0----0-0-|----0-0-------|----0-0-0---0---|-0-0-0-0-1-4-----|


 Q Q Q Q  Q Q Q Q  Q Q Q Q  Q Q Q Q
|-------------|-------------|-------------|-------------|
|-------------|-------------|-------------|-------------|
|-5--------5--|----8S=7--5--|-4-----------|-------------|
|----0--0-----|-0-----------|----0--0--1--|-0--0--0--0--|


 Q Q Q Q  Q Q Q Q  Q Q Q Q  +Q  Q Q Q
|-------------|-------------|-------------|---------------|
|-------------|-------------|-------------|---------------|
|-5--------5--|----8S=7--5--|-4-----------|---------------|
|----0--0-----|-0-----------|----0--0--0--|-(0)--0--0--0--|


 Q Q Q Q  Q Q Q Q  Q Q Q Q  Q Q Q Q
|-------------|-------------|-------------|-------------|
|-------------|-------------|-------------|-------------|
|-5--------5--|----8S=7--5--|-4-----------|-------------|
|----0--0-----|-0-----------|----0--0--1--|-0--0--0--0--|


 Q Q Q Q  Q Q Q Q  Q Q Q Q  +Q  Q Q Q
|-------------|-------------|-------------|---------------|
|-------------|-------------|-------------|---------------|
|-5--------5--|----8S=7--5--|-4-----------|---------------|
|----0--0-----|-0-----------|----0--0--0--|-(0)--0--0--0--|


 H  H   H  H   H  H   Q Q E E E E
|-----------|-----------|-----------|---------------|
|-----------|-----------|-----------|---------------|
|-----------|-----------|-----------|---------------|
|-0----7----|-6----1----|-0----7----|-6--0--0-0-0-0-|


 H  H   H  H   H  H   Q Q E E E E
|-----------|-----------|-----------|---------------|
|-----------|-----------|-----------|---------------|
|-----------|-----------|-----------|---------------|
|-0----7----|-6----1----|-0----7----|-6--0--0-0-0-0-|


 W     +W      W     W
|----------|------------|----------|----------|
|----------|------------|----------|----------|
|----------|------------|----------|----------|
|-0--------|-(0)--------|-0--------|-3--------|


 W     +W      +W      W
|----------|------------|------------|------|
|----------|------------|------------|------|
|----------|------------|------------|------|
|-0--------|-(0)--------|-(0)--------|-3----|


 E E E E E E E E  E E E E E E E E  E E E E E E E E  E E E E E E E E
|-----------------|-----------------|-----------------|-----------------|
|-----------------|-----------------|-----------------|-----------------|
|-----------------|-----------------|-----------------|-----------------|
|-0-0-0-0-0-0-0-0-|-0-0-0-0-0-0-0-0-|-0-0-0-0-0-0-0-0-|-0-0-0-0-0-0-0-0-|


                                    Q=190
 E E E E E E E E  E E E E E E E E  E E E E E E E E  E E E E H   Wx8
|-----------------|-----------------|-----------------|--------------|--------|
|-----------------|-----------------|-----------------|--------------|--------|
|-----------------|-----------------|-----------------|--------------|--------|
|-0-0-0-0-0-0-0-0-|-0-0-0-0-0-0-0-0-|-0-0-0-0-0-0-0-0-|-0-0-0-0-1----|--------|


 Q=195
 Q E E Q E E  Q E E Q Q  Q E E E E E E  E E E E E E E E
|---------------|--------------|----------------|-----------------|
|---------------|--------------|----------------|-----------------|
|-5------5------|-5------6--4--|-5--------5---5-|-------------1-5-|
|----0-0----0-0-|----0-0-------|----0-0-0---0---|-0-0-0-0-1-4-----|


 Q E E Q E E  Q E E Q Q  Q E E E E E E  E E E E E E E E
|---------------|--------------|----------------|-----------------|
|---------------|--------------|----------------|-----------------|
|-5------5------|-5------6--4--|-5--------5---5-|-------------1-5-|
|----0-0----0-0-|----0-0-------|----0-0-0---0---|-0-0-0-0-1-4-----|


 Q E E Q E E  Q E E Q Q  Q E E E E E E  E E E E E E E E
|---------------|--------------|----------------|-----------------|
|---------------|--------------|----------------|-----------------|
|-5------5------|-5------6--4--|-5--------5---5-|-------------1-5-|
|----0-0----0-0-|----0-0-------|----0-0-0---0---|-0-0-0-0-1-4-----|


 Q E E Q E E  Q E E Q Q  Q E E E E E E  W
|---------------|--------------|----------------|------|
|---------------|--------------|----------------|------|
|-5------5------|-5------6--4--|-5--------------|------|
|----0-0----0-0-|----0-0-------|----0-0-0-5-0-5-|------|


 Q Q Q Q  Q Q Q Q  Q Q Q Q  Q Q Q Q
|-------------|-------------|-------------|-------------|
|-------------|-------------|-------------|-------------|
|-5--------5--|----8S=7--5--|-4-----------|-------------|
|----0--0-----|-0-----------|----0--0--1--|-0--0--0--0--|


 Q Q Q Q  Q Q Q Q  Q Q Q Q  +Q  Q Q Q
|-------------|-------------|-------------|---------------|
|-------------|-------------|-------------|---------------|
|-5--------5--|----8S=7--5--|-4-----------|---------------|
|----0--0-----|-0-----------|----0--0--0--|-(0)--0--0--0--|


 Q Q Q Q  Q Q Q Q  Q Q Q Q  Q Q Q Q
|-------------|-------------|-------------|-------------|
|-------------|-------------|-------------|-------------|
|-5--------5--|----8S=7--5--|-4-----------|-------------|
|----0--0-----|-0-----------|----0--0--1--|-0--0--0--0--|


 Q Q Q Q  Q Q Q Q  Q Q Q Q  W
|-------------|-------------|-------------|------|
|-------------|-------------|-------------|------|
|-5--------5--|----8S=7--5--|-4-----------|------|
|----0--0-----|-0-----------|----0--0--0--|------|


 W     +Q  Q Q Q  Q Q  H    H  H
|----------|---------------|-------------|----------|
|----------|---------------|-------------|----------|
|----------|---------------|-------------|----------|
|-0--------|-(0)--7--6--0--|-1--0--13----|-12----8--|


 W     +Q  Q Q Q  Q Q  H    H  H
|----------|---------------|-------------|----------|
|----------|---------------|-------------|----------|
|----------|---------------|-------------|----------|
|-0--------|-(0)--7--6--0--|-1--0--13----|-12----8--|


 W     +Q  Q Q Q  Q Q  H    H  H
|----------|---------------|-------------|----------|
|----------|---------------|-------------|----------|
|----------|---------------|-------------|----------|
|-0--------|-(0)--7--6--0--|-1--0--13----|-12----8--|


 W     +Q  Q Q Q  Q Q  H    H  H
|----------|---------------|-------------|----------|
|----------|---------------|-------------|----------|
|----------|---------------|-------------|----------|
|-0--------|-(0)--7--6--0--|-1--0--13----|-12----8--|


 W     +Q  Q Q Q  Q Q  H    H  H
|----------|---------------|-------------|----------|
|----------|---------------|-------------|----------|
|----------|---------------|-------------|----------|
|-0--------|-(0)--7--6--0--|-1--0--13----|-12----8--|


 W     +Q  Q Q Q  Q Q  H    H  H
|----------|---------------|-------------|----------|
|----------|---------------|-------------|----------|
|----------|---------------|-------------|----------|
|-0--------|-(0)--7--6--0--|-1--0--13----|-12----8--|


 W     +Q  Q Q Q  Q Q  H    H  H
|----------|---------------|-------------|----------|
|----------|---------------|-------------|----------|
|----------|---------------|-------------|----------|
|-0--------|-(0)--7--6--0--|-1--0--13----|-12----8--|


 W     +Q  Q Q Q  Q Q  H    H  H
|----------|---------------|-------------|----------*|
|----------|---------------|-------------|----------*|
|----------|---------------|-------------|----------*|
|-0--------|-(0)--7--6--0--|-1--0--13----|-12----8--*|


Duration 🏷Legend
---------------
W - whole; H - half; Q - quarter; E - 8th; S - 16th; T - 32nd; X - 64th; a - acciaccatura
+ - note tied to previous; . - note dotted; .. - note double dotted
Uncapitalized letters represent notes that are staccato (1/2 duration)
Irregular groupings are notated above the duration line
Duration letters will always appear directly above the note/fret number it represents the
duration for. Duration letters with no fret number below them represent rests. Multi-
bar rests are notated in the form Wxn, where n is the number of bars to rest for. Low
melody durations appear below the staff

Tablature 🏷Legend
----------------
 h  - hammer-on
 p  - pull-off
 b  - bend
 pb - pre-bend
 r  - bend release (if no number after the r, then release immediately)
 /\ - slide into or out of (from/to "nowhere")
 s  - legato slide
 S  - shift slide
<n> - natural harmonic
[n] - artificial harmonic
n(n) - tapped harmonic
 ~  - vibrato
 tr - trill
 T  - tap
 TP - trem. picking
 PM - palm muting
\n/ - tremolo bar dip; n = amount to dip
 \n - tremolo bar down
 n/ - tremolo bar up
/n\ - tremolo bar inverted dip
 =  - hold bend; also acts as connecting device for hammers/pulls
 <> - volume swell (louder/softer)
 x  - on rhythm slash represents muted slash
 o  - on rhythm slash represents single note slash

Misc 🏷Legend
-----------
 | - bar
|| - double bar
||o - repeat start
o|| - repeat end
*| - double bar (ending)
 : - bar (freetime)
 $ - Segno
 & - Coda
Tempo markers - <E/E./Q/Q./H/H.> = BPM(8/16=s8/s16), where s8 = swing 8ths, s16 = swing 16ths

Almost there ...

Sign in to get your own page with links to favourite songs and more. You are just one click away...

Login with Facebook Login with Google