Log in

One click and you are in

Login with Facebook Login with Google

Why sign up and log in

Guitar Tabs Explorer
Daan bass tabs for Icon

Bass tabs

Tuning: EADG



Verse

G ||---------------|--------10------|----------------|--------9------||
D ||-7-----7-------|-----10----10---|--10----10------|-----9-----9---||
A ||----7-----7----|--8-------------|-----10----10---|--7------------||
E ||---------------|----------------|----------------|---------------||


Chorus

G ||---------------|--------9-------|----------------|--------10-----||
D ||-10----10------|-----9-----9----|--7-----7-------|-----10----10--||
A ||----10----10---|--7-------------|-----7-----7----|--8------------||
E ||---------------|----------------|----------------|---------------||


G ||-------10------|--------9-------|---------------|----------------|---------------||
D ||----10----10---|-----9-----9----|---------------|--7-----7-------|--7-----7------||
A ||-8-------------|--7-------------|--7-----7------|-----7-----7----|-----7-----7---||
E ||---------------|----------------|-----7---------|----------------|---------------||

ⓘ Bass guitar tab for 'Icon' by Daan, a rock band formed in 1969 from Belgium

Almost there ...

Sign in to get your own page with links to favourite songs and more. You are just one click away...

Login with Facebook Login with Google