Log in

One click and you are in

Login with Facebook Login with Google

Why sign up and log in

Guitar Tabs Explorer
D:Ream bass tabs for U r the best thing

Bass tabs

Intro:
    U R the best thing       U R the best thing
G|-----------------------------------------------------------------|
D|---7--------------------9---------10---------------------12------|
A|-----------------------------------------------------------------|
E|-----------------------------------------------------------------|

G|------------------------------------------------------------------------|
D|-2--2--22-2-2---2--2--22-2-2---2--2--22-2-2---2--2--22-2-2--------------|
A|-----------------------------------------------------------0--0--00-0-0-|
E|------------------------------------------------------------------------|

G|--------------------------------------------|
D|--------------------------------------------|
A|-2--2--22-2-2---3--3--33-3-3---5--5--55-5-5-|
E|--------------------------------------------|


Verse 1: (Play All of Verse 1 x2)
G|------------------------------------------------------------------------|
D|-2--2--22-2-2---2--2--22-2-2---2--2--22-2-2---2--2--22-2-2--------------|
A|-----------------------------------------------------------0--0--00-0-0-|
E|------------------------------------------------------------------------|

G|-----------------------------------------|
D|--------------2--2-22-2-2---2--2--22-2-2-|
A|-2--2--22-2-2----------------------------|
E|-----------------------------------------|


Chorus:
G|---------------------------------------------------------|
D|---------------------------------------------------------|
A|-3--3--33-3-3---5--5--55-5-5---7--7--77-7-7--------------|
E|--------------------------------------------7--7--77-7-7-|

 ‘.’   ‘.’   ‘.’   ‘.’
G|------------------------------|
D|------------------------------|
A|-0--------2--------3--------5-|
E|------------------------------|

                       (Play This Bit x3)
G|-----------------------------------------------------------|
D|-----------------------------------------------------------|
A|-0--0--00-0-0---2--2--22-2-2---3--3--33-3-3---5--5--55-5-5-|
E|-----------------------------------------------------------|

Verse 2: (Play All of Verse 2 x2)
G|------------------------------------------------------------------------|
D|-2--2--22-2-2---2--2--22-2-2---2--2--22-2-2---2--2--22-2-2--------------|
A|-----------------------------------------------------------0--0--00-0-0-|
E|------------------------------------------------------------------------|

G|-----------------------------------------|
D|--------------2--2-22-2-2---2--2--22-2-2-|
A|-2--2--22-2-2----------------------------|
E|-----------------------------------------|


Chorus:
G|---------------------------------------------------------|
D|---------------------------------------------------------|
A|-3--3--33-3-3---5--5--55-5-5---7--7--77-7-7--------------|
E|--------------------------------------------7--7--77-7-7-|

 ‘.’   ‘.’   ‘.’   ‘.’
G|------------------------------|
D|------------------------------|
A|-0--------2--------3--------5-|
E|------------------------------|

                       (Play This Bit x3)
G|-----------------------------------------------------------|
D|-----------------------------------------------------------|
A|-0--0--00-0-0---2--2--22-2-2---3--3--33-3-3---5--5--55-5-5-|
E|-----------------------------------------------------------|

                               (Break)
G|---------------------------------------------------------------|
D|---------------------------------------------------------------|
A|-0--0--00-0-0---2--2--22-2-2---3--3--33-3-3---5--5--55-5-5---7-|
E|---------------------------------------------------------------|


Bridge: (4 Bars No Bass)

G|-----------------------------------------------------------|
D|-2--2--22-2-2---2--2--22-2-2---2--2--22-2-2---2--2--22-2-2-|
A|-----------------------------------------------------------|
E|-----------------------------------------------------------|

 ‘.’   ‘.’   ‘.’   ‘.’   ‘.’   ‘.’   ‘.’   ‘.’
G|------------------------------------------------------------------|
D|------------------------------------------------------------------|
A|-0--------2--------3--------5--------0--------2--------3--------5-|
E|------------------------------------------------------------------|


Chorus:                   (Play This Bit x5)
G|-----------------------------------------------------------|
D|-----------------------------------------------------------|
A|-0--0--00-0-0---2--2--22-2-2---3--3--33-3-3---5--5--55-5-5-|
E|-----------------------------------------------------------|


Outro: (Repeat Outro To Fade/End)
G|-----------------------------------------------------|
D|-----------------------------------------------------|
A|--------------7--7--77-7-7--------------7--7--77-7-7-|
E|-0--0--00-0-0--------------0--0--00-0-0--------------|

Symbol: ‘.’ Pause Dots
ⓘ Bass guitar tab for 'U R The Best Thing' by D:Ream, a pop band formed in 1990 from Derry, Northern Ireland

Almost there ...

Sign in to get your own page with links to favourite songs and more. You are just one click away...

Login with Facebook Login with Google