Log in

One click and you are in

Login with Facebook Login with Google

Why sign up and log in

Guitar Tabs Explorer
D4vd bass tabs for Romantic homicide

Bass tabs

🎸 Intro:

G|--------------------------------------|
D|--------------------------------------|
A|---2--------2-------2---------2-------|
E|--------------------------------------|

G|--------------------------------------|
D|--------------------------------------|
A|--------------------------------------|
E|---2--------2--------2---------2------|


🎸 Verse 1:

G|--------------------------------------|
D|--------------------------------------|
A|---2--------2-------2---------2-------|
E|--------------------------------------|

G|--------------------------------------|
D|--------------------------------------|
A|--------------------------------------|
E|---2--------2--------2---------2------|


🎸 Chorus:

G|--------------------------------------|
D|--------------------------------------|
A|---2--------2-------2---------2-------|
E|--------------------------------------|

G|--------------------------------------|
D|--------------------------------------|
A|--------------------------------------|
E|---2--------2--------2---------2------|
🎸 Verse 2:

G|--------------------------------------|
D|--------------------------------------|
A|---2--------2-------2---------2-------|
E|--------------------------------------|

G|--------------------------------------|
D|--------------------------------------|
A|--------------------------------------|
E|---2--------2--------2---------2------|


🎸 Chorus:

G|--------------------------------------|
D|--------------------------------------|
A|---2--------2-------2---------2-------|
E|--------------------------------------|

G|--------------------------------------|
D|--------------------------------------|
A|--------------------------------------|
E|---2--------2--------2---------2------|


🎸 Outro:

G|--------------------------------------|
D|--------------------------------------|
A|---2--------2-------2---------2-------|
E|--------------------------------------|

G|--------------------------------------|
D|--------------------------------------|
A|--------------------------------------|
E|---2--------2--------2---------2------|
d4vd romantic homicide music video

Almost there ...

Sign in to get your own page with links to favourite songs and more. You are just one click away...

Login with Facebook Login with Google