Guitar Tabs Explorer
D4vd bass tabs for Here with me

Bass tabs

Intro

G|--------------|---6-5-4-------|-9------------------|
D|--------6-----|-6--------4/7-7|--7-6-------9-11/13-|
A|7--7/9----6--4|---------------|------7/9-9---------|
E|--------------|---------------|--------------------|

G|--------------|---6-4----6----|-9-------------------|
D|--------6-----|-6------------7|--7-6-------9-9h11-9-|
A|7--7/9----6--4|---------------|------7/9-9----------|
E|--------------|---------------|---------------------|

Watch the sunrise

G|--------------|---------------|--------------------|
D|--------------|---------------|--------4/6---------|
A|7---------4-2-|-4--0-----6----|-2-4--7------6--4---|
E|--7--4--4-----|-------4---4-2-|--------------------|

G|--------------|--------------|
D|--------------|--------------|
A|2--4--0----0--|----2-4-6-----|
E|---------2---4|--2-----------|

I don't care

G|--------------|---------------|--------------------|
D|--------------|---------------|--------------------|
A|--------------|---------------|--------------------|
E|--------------|---------------|--------------------|

You're here with me

G|--------------|---6-5-4-------|-9------------------|
D|--------6-----|-6--------4/7-7|--7-6-------9-11/13-|
A|7--7/9----6--4|---------------|------7/9-9---------|
E|--------------|---------------|--------------------|

G|--------------|---6-4----6----|-9-------------------|
D|--------6-----|-6------------7|--7-6-------9-9h11-9-|
A|7--7/9----6--4|---------------|------7/9-9----------|
E|--------------|---------------|---------------------|

I wish

G|--------------|---------------|--------------------|
D|--------------|---------------|--------4/6---------|
A|7---------4-2-|-4--0-----6----|-2-4--7------6--4---|
E|--7--4--4-----|-------4---4-2-|--------------------|

G|--------------|--------------|
D|--------------|--------------|
A|2--4--0----0--|----2-4-6-----|
E|---------2---4|--2-----------|

I don't care

G|--------------|---------------|--------------------|
D|--------------|---------------|--------------------|
A|--------------|---------------|--------------------|
E|--------------|---------------|--------------------|

You're here with me

G|--------------|---6-5-4-------|-9------------------|
D|--------6-----|-6--------4/7-7|--7-6-------9-11/13-|
A|7--7/9----6--4|---------------|------7/9-9---------|
E|--------------|---------------|--------------------|

G|--------------|---6-4----6----|-9-------------------|
D|--------6-----|-6------------7|--7-6-------9-9h11-9-|
A|7--7/9----6--4|---------------|------7/9-9----------|
E|--------------|---------------|---------------------|


Outro (fade out)

G|--------------|---------------|--------------------|
D|--------------|---------------|--------4/6---------|
A|7---------4-2-|-4--0-----6----|-2-4--7------6--4---|
E|--7--4--4-----|-------4---4-2-|--------------------|

G|--------------|--------------|
D|--------------|--------------|
A|2--4--0----0--|----2-4-6-----|
E|---------2---4|--2-----------|


************************************

| / Slide up
| h Hammer-on

************************************

Other versions of Here With Me

Other alternative guitar chords and tabs for the song Here with me (Ver. 2) by D4vd
Here with me (Ver. 2)Bass tabs