Guitar Tabs Explorer
D4vd bass tabs for Dirty secrets

Dirty Secrets bass tab by D4vd

D4vd bass tabs for Dirty secrets

Bass tabs

  • Difficulty: Intermediate
🎸 Intro:

G|---------------------------------------------------------------------------|
D|---------------------------------------------------------------------------|
A|---4-5-4-9-4-9-7----4-5-4-9-4-9-7----4-5-4-12-4-12-11----------------------|
E|---------------------------------------------------------------------------|

🎸 Chorus:
G|---------------------------------------------------------------------------|
D|---------------------------------------------------------------------------|
A|-----9--9--9-9-9-9----4--4--4-4-4-4----5--5--5-5-5-5-------------------------|
E|------------------------------------------------------7--7-7-7-9-----------| x4


🎸 Verse 1:

G|---------------------------------------------------------------------------|
D|---------------------------------------------------------------------------|
A|-----9--9--9-9-9-9----4--4--4-4-4-4----5--5--5-5-5-5-------------------------|
E|------------------------------------------------------7--7-7-7-9-----------| x4


🎸 Chorus:

G|---------------------------------------------------------------------------|
D|---------------------------------------------------------------------------|
A|-----9--9--9-9-9-9----4--4--4-4-4-4----5--5--5-5-5-5-----------------------|
E|------------------------------------------------------7--7-7-7-9-----------| x4


🎸 Bridge:

G|---------------------------------------------------------------------------|
D|---------------------------------------------------------------------------|
A|-----9--9--9-9-9-9----4--4--4-4-4-4----5--5--5-5-5-5-------------------------|
E|------------------------------------------------------7--7-7-7-9-----------| x4


🎸 Chorus:
G|---------------------------------------------------------------------------|
D|---------------------------------------------------------------------------|
A|-----9--9--9-9-9-9----4--4--4-4-4-4----5--5--5-5-5-5-------------------------|
E|------------------------------------------------------7--7-7-7-9-----------| x4

🎸 Outro:
G|---------------------------------------------------------------------------|
D|---------------------------------------------------------------------------|
A|---4-5-4-9-4-9-7----4-5-4-9-4-9-7----4-5-4-12-4-12-11----------------------|
E|---------------------------------------------------------------------------|