Search tabs and chords

Search for song, artist or band

Log in

One click and you are in

Login with Facebook Login with Google

Why sign up and log in

Guitar Tabs Explorer
D.o.a. guitar tabs for Police brutality

Guitar tabs

Intro:
                              x3
e|-------------------------------|--------------------------------------------|
B|-------------------------------|--------------------------------------------|
G|-------------------------------|--------------------------------------------|
D|---2---2h3h5--2p0--0---2p0--2--|---2---2h3-5--3---2---0-----2~--------------|
A|-------------------------------|--------------------------------------------|
E|-------------------------------|--------------------------------------------|

Chorus:
e|----------------------|-----------------------|----------------------|
B|----------------------|-----------------------|----------------------|
G|----------------5-----|-----------------------|----------------5-----|
D|----------------3-----|-----------------------|----------------5-----|
A|--7--7--7--7----3---7-|--7--7--7--7---3---5---|--7--7--7--7----3---7-|
E|--5--5--5--5--------5-|--5--5--5--5---1---3---|--5--5--5--5--------5-|

e|-------------------------------|
B|-------------------------------|
G|-------------------------------|
D|---2---2h3h5--2p0--0---2p0--2--|
A|-------------------------------|
E|-------------------------------|

e|----------------------|-----------------------|----------------------|
B|----------------------|-----------------------|----------------------|
G|----------------5-----|-----------------------|----------------5-----|
D|----------------3-----|-----------------------|----------------5-----|
A|--7--7--7--7----3---7-|--7--7--7--7---3---5---|--7--7--7--7----3---7-|
E|--5--5--5--5--------5-|--5--5--5--5---1---3---|--5--5--5--5--------5-|

e|-------------------------------|--------------------------------------------|
B|-------------------------------|--------------------------------------------|
G|-------------------------------|--------------------------------------------|
D|---2---2h3h5--2p0--0---2p0--2--|---2---2h3-5--3---2---0-----2~--------------|
A|-------------------------------|--------------------------------------------|
E|-------------------------------|--------------------------------------------|

Verse:
   PM.........                 PM.........                                 x3
e|---------------------------------------------------------------------------|
B|---------------------------------------------------------------------------|
G|---------------------------------------------------------------------------|
D|---------------------------------------------------------------------------|
A|--7--7--7--7----3--x--3--x----5--5--5--5----2--x--2--x---------------------|
E|--5--5--5--5----1--x--1--x----3--3--3--3----0--x--0--x---------------------|

   PM.........
e|---------------------------------------------------------------------------|
B|---------------------------------------------------------------------------|
G|---------------------------------------------------------------------------|
D|--------------------------------------------9---|
A|--7--7--7--7----3--x--3--x----5--5--5--5----7---|
E|--5--5--5--5----1--x--1--x----3--3--3--3----0---|

Chorus:

e|----------------------|-----------------------|----------------------|
B|----------------------|-----------------------|----------------------|
G|----------------5-----|-----------------------|----------------5-----|
D|----------------3-----|-----------------------|----------------5-----|
A|--7--7--7--7----3---7-|--7--7--7--7---3---5---|--7--7--7--7----3---7-|
E|--5--5--5--5--------5-|--5--5--5--5---1---3---|--5--5--5--5--------5-|

e|-------------------------------|
B|-------------------------------|
G|-------------------------------|
D|---2---2h3h5--2p0--0---2p0--2--|
A|-------------------------------|
E|-------------------------------|

e|----------------------|-----------------------|----------------------|
B|----------------------|-----------------------|----------------------|
G|----------------5-----|-----------------------|----------------5-----|
D|----------------3-----|-----------------------|----------------5-----|
A|--7--7--7--7----3---7-|--7--7--7--7---3---5---|--7--7--7--7----3---7-|
E|--5--5--5--5--------5-|--5--5--5--5---1---3---|--5--5--5--5--------5-|

e|-------------------------------|--------------------------------------------|
B|-------------------------------|--------------------------------------------|
G|-------------------------------|--------------------------------------------|
D|---2---2h3h5--2p0--0---2p0--2--|---2---2h3-5--3---2---0-----2~--------------|
A|-------------------------------|--------------------------------------------|
E|-------------------------------|--------------------------------------------|

Verse:
   PM.........                 PM.........                                 x3
e|---------------------------------------------------------------------------|
B|---------------------------------------------------------------------------|
G|---------------------------------------------------------------------------|
D|---------------------------------------------------------------------------|
A|--7--7--7--7----3--x--3--x----5--5--5--5----2--x--2--x---------------------|
E|--5--5--5--5----1--x--1--x----3--3--3--3----0--x--0--x---------------------|

   PM.........
e|---------------------------------------------------------------------------|
B|---------------------------------------------------------------------------|
G|---------------------------------------------------------------------------|
D|--------------------------------------------9---|
A|--7--7--7--7----3--x--3--x----5--5--5--5----7---|
E|--5--5--5--5----1--x--1--x----3--3--3--3----0---|

Chorus:

e|----------------------|-----------------------|----------------------|
B|----------------------|-----------------------|----------------------|
G|----------------5-----|-----------------------|----------------5-----|
D|----------------3-----|-----------------------|----------------5-----|
A|--7--7--7--7----3---7-|--7--7--7--7---3---5---|--7--7--7--7----3---7-|
E|--5--5--5--5--------5-|--5--5--5--5---1---3---|--5--5--5--5--------5-|

e|-------------------------------|
B|-------------------------------|
G|-------------------------------|
D|---2---2h3h5--2p0--0---2p0--2--|
A|-------------------------------|
E|-------------------------------|

e|----------------------|-----------------------|----------------------|
B|----------------------|-----------------------|----------------------|
G|----------------5-----|-----------------------|----------------5-----|
D|----------------3-----|-----------------------|----------------5-----|
A|--7--7--7--7----3---7-|--7--7--7--7---3---5---|--7--7--7--7----3---7-|
E|--5--5--5--5--------5-|--5--5--5--5---1---3---|--5--5--5--5--------5-|

e|-------------------------------|--------------------------------------------|
B|-------------------------------|--------------------------------------------|
G|-------------------------------|--------------------------------------------|
D|---2---2h3h5--2p0--0---2p0--2--|---2---2h3-5--3---2---0-----2~--------------|
A|-------------------------------|--------------------------------------------|
E|-------------------------------|--------------------------------------------|

Solo:

e|-----/5--5--5--5--5--5--5--5------5--5--5--5--5--5--5--|
B|-----/5--5--5--5--8--5--5--5------5--5--5--8--5--5--5--|
G|-------------------------------7b----------------------|
D|-------------------------------------------------------|
A|-------------------------------------------------------|
E|-------------------------------------------------------|

e|-----/5--5--5--5--5--5--5--5------5--5--5--------------|
B|-----/5--5--5--5--8--5--5--5------5--5--5--------------|
G|-------------------------------7b----------7b--7b--7b--|
D|-------------------------------------------------------|
A|-------------------------------------------------------|
E|-------------------------------------------------------|

e|------------------------------------|------5-----5-----5-------------/12-12-12-12-12-12---|
B|---7b--7---5----7b--7b--7b--7b--7b--|------5-----5-----5----8-5-8-5--/12-12-12-12-12-12---|
G|---7b--7---5----7b--7b--7b--7b--7b--|--7b-----7b----7b------------------------------------|
D|------------------------------------|-----------------------------------------------------|
A|------------------------------------|-----------------------------------------------------|
E|------------------------------------|-----------------------------------------------------|

Rhythm under solo                                     x3
e|------------------------------------------------------|
B|------------------------------------------------------|
G|------------------------------------------------------|
D|---9--9--9--9---7--7--7--7----------------------------|
A|---7--7--7--7---5--5--5--5---7--7--7--7--7--7--7--7---|
E|-----------------------------5--5--5--5--5--5--5--5---|

e|------------------------------------------------------|
B|------------------------------------------------------|
G|------------------------------------------------------|
D|---9--9--9--9---7--7--7--7---9--9--9--9--9--9--9--9---|
A|---7--7--7--7---5--5--5--5---7--7--7--7--7--7--7--7---|
E|-----------------------------0--0--0--0--0--0--0--0---|

Verse:
   PM.........                 PM.........                                 x5
e|---------------------------------------------------------------------------|
B|---------------------------------------------------------------------------|
G|---------------------------------------------------------------------------|
D|---------------------------------------------------------------------------|
A|--7--7--7--7----3--x--3--x----5--5--5--5----2--x--2--x---------------------|
E|--5--5--5--5----1--x--1--x----3--3--3--3----0--x--0--x---------------------|

   PM.........
e|---------------------------------------------------------------------------|
B|---------------------------------------------------------------------------|
G|---------------------------------------------------------------------------|
D|--------------------------------------------9---|
A|--7--7--7--7----3--x--3--x----5--5--5--5----7---|
E|--5--5--5--5----1--x--1--x----3--3--3--3----0---|

Chorus:

e|----------------------|-----------------------|----------------------|
B|----------------------|-----------------------|----------------------|
G|----------------5-----|-----------------------|----------------5-----|
D|----------------3-----|-----------------------|----------------5-----|
A|--7--7--7--7----3---7-|--7--7--7--7---3---5---|--7--7--7--7----3---7-|
E|--5--5--5--5--------5-|--5--5--5--5---1---3---|--5--5--5--5--------5-|

e|-------------------------------|
B|-------------------------------|
G|-------------------------------|
D|---2---2h3h5--2p0--0---2p0--2--|
A|-------------------------------|
E|-------------------------------|

e|----------------------|-----------------------|----------------------|
B|----------------------|-----------------------|----------------------|
G|----------------5-----|-----------------------|----------------5-----|
D|----------------3-----|-----------------------|----------------5-----|
A|--7--7--7--7----3---7-|--7--7--7--7---3---5---|--7--7--7--7----3---7-|
E|--5--5--5--5--------5-|--5--5--5--5---1---3---|--5--5--5--5--------5-|

e|-------------------------------|--------------------------------------------|
B|-------------------------------|--------------------------------------------|
G|-------------------------------|--------------------------------------------|
D|---2---2h3h5--2p0--0---2p0--2--|---2---2h3-5--3---2---0-----2~--------------|
A|-------------------------------|--------------------------------------------|
E|-------------------------------|--------------------------------------------|



Outro:

                     x4
e|---------------------|
B|---------------------|
G|---------------------|
D|-------5-x-----------|
A|--7-x--3-x--3-x-5-x--|
E|--5-x-------1-x-3-x--|

                               x3
e|-------------------------------|
B|-------------------------------|
G|-------------------------------|
D|---2---2h3h5--2p0--0---2p0--2--|
A|-------------------------------|
E|-------------------------------|

                               x2
e|-------------------------------|--------------------------------------------|
B|-------------------------------|--------------------------------------------|
G|-------------------------------|--------------------------------------------|
D|---2---2h3-5--3---2------------|-----2---2h3-5--3---2---0-----2~------------|
A|-------------------------------|--------------------------------------------|
E|-------------------------------|--------------------------------------------|

e|-----------------------------------|
B|-----------------------------------|
G|-----------------------------------|
D|-----------------------------------|
A|---7-7-7-7-7-7-7-7-7-7---------7---|
E|---5-5-5-5-5-5-5-5-5-5---------5---|



************************************

| x   Dead note
| h   Hammer-on
| p   Pull-off
| b   Bend
| br  Bend release
| /   Slide up
| ~   Vibrato
| PM  Palm mute

Almost there ...

Sign in to get your own page with links to favourite songs and more. You are just one click away...

Login with Facebook Login with Google