Log in

One click and you are in

Login with Facebook Login with Google

Why sign up and log in

Guitar Tabs Explorer
D Train bass tabs for Youre the one for me

Bass tabs

Tuning: Standard (E A D G)


Intro:
00:00 - 00:34
G|------------|4h6-4---4---|------------2-2-4-4-|------------|4h5-4---4---|-----------2-2-4-4-|
D|-4--4-2-4-2-|------6---4-|-4--4-2-4-2---------|-4--4-2-4-2-|------6---4-|-4-4-2-4-2---------|
A|------------|------------|--------------------|------------|------------|-------------------|
E|------------|------------|--------------------|------------|------------|-------------------|

G|------------|4h6-4---4---|------------2-2-4-4--|------------|4h5-4---4---|----------2-2-4-4-|
D|-4--4-2-4-2-|------6---4-|-4--4-2-4-2---------|-4--4-2-4-2-|------6---4-|-4-4-2-4-2---------|
A|------------|------------|--------------------|------------|------------|-------------------|
E|------------|------------|--------------------|------------|------------|-------------------|

00:35 - 00:50
G|-----------------|-------------|-----------------|----------------|-----------------|-------------|
D|-----------------|-------7-8-9-|-----------------|----------------|-----------------|-------7-8-9-|
A|---7-9-9-7-9-7---|---7-9-------|---7-9-9-7-9-7---|---7-9-7-9-11---|---7-9-9-7-9-7---|---7-9-------|
E|-9-------------9-|-9-----------|-9-------------9-|-9------------9-|-9-------------9-|-9-----------|

G|-----------------|----------------|-------------|
D|-----------------|----------------|-11-9---9----|
A|---7-9-9-7-9-7---|---7-9-7-9-11---|------11--9--|
E|-9-------------9-|-9------------9-|-------------|


Chorus:
00:51 - "busting up from the clouds, shout out loud....."
G|-----------------|-------------|-----------------|----------------|-----------------|-------------|
D|-----------------|-------7-8-9-|-----------------|----------------|-----------------|-------7-8-9-|
A|---7-9-9-7-9-7---|---7-9-------|---7-9-9-7-9-7---|---7-9-7-9-11---|---7-9-9-7-9-7---|---7-9-------|
E|-9-------------9-|-9-----------|-9-------------9-|-9------------9-|-9-------------9-|-9-----------|

G|-----------------|-----------------|
D|-----------------|-----------------|
A|---7-9-9-7-9-7---|---7-9-9-7-9-7---|
E|-9-------------9-|-9-------------9-|

Verse one:
01:11 "with this sweet love I've found it takes my feet right off the ground...."
G|-----------------|-------------|-----------------|----------------|-----------------|-------------|
D|-----------------|-------7-8-9-|-----------------|----------------|-----------------|-------7-8-9-|
A|---7-9-9-7-9-7---|---7-9-------|---7-9-9-7-9-7---|---7-9-7-9-11---|---7-9-9-7-9-7---|---7-9-------|
E|-9-------------9-|-9-----------|-9-------------9-|-9------------9-|-9-------------9-|-9-----------|

G|-----------------|-----------------|
D|-----------------|-----------------|
A|---7-9-9-7-9-7---|---7-9-9-7-9-7---|
E|-9-------------9-|-9-------------9-|


Bridge:
01:24 "you just don't know, what you did to me but I'm not the same"
G|----------------|-----------------|---11-11-9----|---11-11-9----|
D|----12-12-------|-----12-12-------|-----------11-|-----------11-|
A|----------14-12-|-----------14-12-|-9------------|-9------------|
E|-10-------------|--10-------------|--------------|--------------|
                           this bit is not 100% but I think close enough
G|----------------|-----------------|---11-11-9----|-------11-11------|
D|----12-12-------|-----12-12-------|-----------11-|-------------9-11-|
A|----------14-12-|-----------14-12-|-9------------|---7-9------------|
E|-10-------------|--10-------------|--------------|-9----------------|

G|----------------|-----------------|---11-11-9----|---11-11-9----|
D|----12-12-------|-----12-12-------|-----------11-|-----------11-|
A|----------14-12-|-----------14-12-|-9------------|-9------------|
E|-10-------------|--10-------------|--------------|--------------|
                           and this bit as well
G|----------------|-----------------|---11-11-9----|-------11-11------|
D|----12-12-------|-----12-12-------|-----------11-|-------------9-11-|
A|----------14-12-|-----------14-12-|-9------------|---7-9------------|
E|-10-------------|--10-------------|--------------|-9----------------|


Chorus:
01:57 "I'm riding on a cloud got to shout out loud, you're the one...."
G|-----------------|-------------|-----------------|----------------|-----------------|-------------|
D|-----------------|-------7-8-9-|-----------------|----------------|-----------------|-------7-8-9-|
A|---7-9-9-7-9-7---|---7-9-------|---7-9-9-7-9-7---|---7-9-7-9-11---|---7-9-9-7-9-7---|---7-9-------|
E|-9-------------9-|-9-----------|-9-------------9-|-9------------9-|-9-------------9-|-9-----------|

G|-----------------|-----------------|
D|-----------------|-----------------|
A|---7-9-9-7-9-7---|---7-9-9-7-9-7---|
E|-9-------------9-|-9-------------9-|


Bridge:
02:43 "you just don't know, what you did to me but I'm not the same"
G|----------------|-----------------|---11-11-9----|---11-11-9----|
D|----12-12-------|-----12-12-------|-----------11-|-----------11-|
A|----------14-12-|-----------14-12-|-9------------|-9------------|
E|-10-------------|--10-------------|--------------|--------------|

G|----------------|-----------------|---11-11-9----|-------11-11------|
D|----12-12-------|-----12-12-------|-----------11-|-------------9-11-|
A|----------14-12-|-----------14-12-|-9------------|---7-9------------|
E|-10-------------|--10-------------|--------------|-9----------------|

G|----------------|-----------------|---11-11-9----|---11-11-9----|
D|----12-12-------|-----12-12-------|-----------11-|-----------11-|
A|----------14-12-|-----------14-12-|-9------------|-9------------|
E|-10-------------|--10-------------|--------------|--------------|

G|----------------|-----------------|---11-11-9----|-------|
D|----12-12-------|-----12-12-------|-----------11-|-------|
A|----------14-12-|-----------14-12-|-9------------|---7-9-|
E|-10-------------|--10-------------|--------------|-9-----|

A capella: "With the love I have inside of me we can turn this world around....etc"
N.C.; bass rests
then play
G|--------------|-----------|---------------|-----------|---------------|-----------|
D|--------------|-----------|---------------|-----------|---------------|-----------|
A|-7-6-7-6-7-9--|-7-6-7-9---|-7-6-7-6-7-9---|-7-6-7-9---|-7-6-7-6-7-9---|-7-6-7-9---|
E|------------9-|---------9-|-------------9-|---------9-|-------------9-|---------9-|

G|--------------|-----------|---------------|-----------|---------------|-----------|
D|--------------|-----------|---------------|-----------|---------------|-----------|
A|-7-6-7-6-7-9--|-7-6-7-9---|-7-6-7-6-7-9---|-7-6-7-9---|-7-6-7-6-7-9---|-7-6-7-9---|
E|------------9-|---------9-|-------------9-|---------9-|-------------9-|---------9-|


Chorus and playout:
G|-----------------|-------------|-----------------|----------------|-----------------|-------------|
D|-----------------|-------7-8-9-|-----------------|----------------|-----------------|-------7-8-9-|
A|---7-9-9-7-9-7---|---7-9-------|---7-9-9-7-9-7---|---7-9-7-9-11---|---7-9-9-7-9-7---|---7-9-------|
E|-9-------------9-|-9-----------|-9-------------9-|-9------------9-|-9-------------9-|-9-----------|

G|-----------------|-----------------|
D|-----------------|-----------------|
A|---7-9-9-7-9-7---|---7-9-9-7-9-7---|
E|-9-------------9-|-9-------------9-|

G|-----------------|-------------|-----------------|----------------|-----------------|-------------|
D|-----------------|-------7-8-9-|-----------------|----------------|-----------------|-------7-8-9-|
A|---7-9-9-7-9-7---|---7-9-------|---7-9-9-7-9-7---|---7-9-7-9-11---|---7-9-9-7-9-7---|---7-9-------|
E|-9-------------9-|-9-----------|-9-------------9-|-9------------9-|-9-------------9-|-9-----------|

G|-----------------|-----------------|
D|-----------------|-----------------|
A|---7-9-9-7-9-7---|---7-9-9-7-9-7---|
E|-9-------------9-|-9-------------9-|

************************************
| h  Hammer-on
************************************

Almost there ...

Sign in to get your own page with links to favourite songs and more. You are just one click away...

Login with Facebook Login with Google