Log in

One click and you are in

Login with Facebook Login with Google

Why sign up and log in

Guitar Tabs Explorer
D Mob bass tabs for We call it acieed

Bass tabs

Tuning: Standard tuning


Tabbed by: bassm99
E-mail: alanmatthews1966@yahoo.co.uk

Bass Starts: 0:11

Repeated bass line:

G|--------------------------------------------------------------------------|
D|--------------------------------------------------------------------------|
A|--5-7-5-------------------------------------------------------------------|
E|--------8-7--7-7----------------------------------------------------------|

Bass Stops: 2:08

Bass Starts: 2:11

Repeat Repeated bass line:

Bass Stops: 2:44 (As Below)

G|--------------------------------------------------------------------------|
D|--------------------------------------------------------------------------|
A|--5-7-5-------------------------------------------------------------------|
E|--------8-7---------------------------------------------------------------|

Bass Starts: 2:51

Repeated bass line: (Play 3 Times)

G|--------------------------------------------------------------------------|
D|--------------------------------------------------------------------------|
A|--5-7-5-------------------------------------------------------------------|
E|--------8-7--7-7----------------------------------------------------------|


Ending: (Play 4 Times)

G|--------------------------------------------------------------------------|
D|--------------------------------------------------------------------------|
A|--5-7-5-------------------------------------------------------------------|
E|--------8-7--7------------------------------------------------------------|

Bass Stops: 3:04

We Call It Acieed bass tab

D Mob bass tabs for We call it acieed

"We Call It Acieed" From the album "A Little Bit Of This, A Little Bit Of That" (1989).

Written by D.Poku.

Almost there ...

Sign in to get your own page with links to favourite songs and more. You are just one click away...

Login with Facebook Login with Google